PrimaNota.ru - самый крупный в мире бесплатный архив песенных текстов, аккордов, табулатур и нот


Sensations Fix - Do You Love Me - таба, видео

Регистрация Запомнить меня
Войти через:  Facebook Google Twitter Vk Yandex Mail.ru

Sensations Fix - Do You Love Me - таба, видео

Печатать
Просмотров: 69
ARTIST: Sensations' Fix
SONG: "Do You Love Me?"
ALBUM: Fragments of Light (1974)



TUNING: Standard



INTRO:
   B5add#5                                         F#m/A
E|------------------------------------------------------------------------------------------------|
B|------------------------------------------------------------------------------------------------|
G|-------------0-----------------0-----------------------------2-----------------2----------------|
D|-4-----4-----------4-----4-----------4-----4-----4-----4-----------4-----4-----------4-----4----|
A|-2-----2-----------2-----2-----------2-----2-----0-----0-----------0-----0-----------0-----0----|
E|------------------------------------------------------------------------------------------------|
+
   C5                                        Gadd4/C
E|------------------------------------------------------------------------------------------------|
B|------------------------------------------------------------------------------------------------|
G|-------------0-----------0-----------0-----------4-----------4-----------4-----------4----------|
D|-5-----5-----------5-----------5-----------5-----------5-----------5-----------5----------------|
A|-3-----3-----------3-----------3-----------3-----------3-----------3-----------3-----------0----|
E|------------------------------------------------------------------------------------------------|
+
   D5                                              Asus4             A
E|------------------------------------------------------------------------------------------------|
B|------------------------------------------------------------------------------------------------|
G|-7-----7-----7-----7-----7-----7-----7-----0-----7-----------7-----6-----------6-----------0----|
D|-7-----7-----7-----7-----7-----7-----7-----0-----7-----------7-----7-----------7-----------0----|
A|-5-----5-----5-----5-----5-----5-----5-----0-----0-----------0-----0-----------0-----------0----|
E|------------------------------------------------------------------------------------------------|
+
   D5                                              Asus4             A
E|------------------------------------------------------------------------------------------------|
B|------------------------------------------------------------------------------------------------|
G|-7-----7-----7-----7-----7-----7-----7-----0-----7-----------7-----6-----------6-----------0----|
D|-7-----7-----7-----7-----7-----7-----7-----0-----7-----------7-----7-----------7-----------0----|
A|-5-----5-----5-----5-----5-----5-----5-----0-----0-----------0-----0-----------0-----------0----|
E|------------------------------------------------------------------------------------------------|



VERSE:
   D
E|-------2--2--2--2--2--2--------2--2--2--2--2--2--------2--2--2--2--2--2--------2--2--2----------|
B|-------3--3--3--3--3--3--------3--3--3--3--3--3--------3--3--3--3--3--3--------3--3--3-----0----|
G|-2-----2--2--2--2--2--2--2-----2--2--2--2--2--2--2-----2--2--2--2--2--2--2-----2--2--2-----0----|
D|-0-----------------------0-----------------------0-----------------------0-----------------0----|
A|------------------------------------------------------------------------------------------------|
E|------------------------------------------------------------------------------------------------|
+
   G
E|-------3--3--3-----------3--3--3-----------3--3--3-----3-----3----------|
B|-------3--3--3-----------3--3--3-----------3--3--3-----3-----3-----0----|
G|-0-----0--0--0-----0-----0--0--0-----0-----0--0--0-----0-----0-----0----|
D|-0-----0--0--0-----0-----0--0--0-----0-----0--0--0-----0-----0-----0----|
A|-x-----x--x--x-----x-----x--x--x-----x-----x--x--x-----x-----x-----0----|
E|-3-----------------3-----------------3-----------------3-----3----------|
+
   D
E|-------2--2--2--2--2--2--------2--2--2--2--2--2--------2--2--2--2--2--2--------2--2--2----------|
B|-------3--3--3--3--3--3--------3--3--3--3--3--3--------3--3--3--3--3--3--------3--3--3-----0----|
G|-2-----2--2--2--2--2--2--2-----2--2--2--2--2--2--2-----2--2--2--2--2--2--2-----2--2--2-----0----|
D|-0-----------------------0-----------------------0-----------------------0-----------------0----|
A|------------------------------------------------------------------------------------------------|
E|------------------------------------------------------------------------------------------------|
+
   G
E|-------3--3--3-----------3--3--3-----------3--3--3-----3-----3----------|
B|-------3--3--3-----------3--3--3-----------3--3--3-----3-----3-----0----|
G|-0-----0--0--0-----0-----0--0--0-----0-----0--0--0-----0-----0-----0----|
D|-0-----0--0--0-----0-----0--0--0-----0-----0--0--0-----0-----0-----0----|
A|-x-----x--x--x-----x-----x--x--x-----x-----x--x--x-----x-----x-----0----|
E|-3-----------------3-----------------3-----------------3-----3----------|



PRE-CHORUS:
   B5add#5                                         F#m/A
E|------------------------------------------------------------------------------------------------|
B|------------------------------------------------------------------------------------------------|
G|-------------0-----------------0-----------------------------2-----------------2----------------|
D|-4-----4-----------4-----4-----------4-----4-----4-----4-----------4-----4-----------4-----4----|
A|-2-----2-----------2-----2-----------2-----2-----0-----0-----------0-----0-----------0-----0----|
E|------------------------------------------------------------------------------------------------|
+
   C5                                        Gadd4/C
E|------------------------------------------------------------------------------------------------|
B|------------------------------------------------------------------------------------------------|
G|-------------0-----------0-----------0-----------4-----------4-----------4-----------4----------|
D|-5-----5-----------5-----------5-----------5-----------5-----------5-----------5----------------|
A|-3-----3-----------3-----------3-----------3-----------3-----------3-----------3-----------0----|
E|------------------------------------------------------------------------------------------------|



CHORUS:
   D5                                              Asus4             A
E|------------------------------------------------------------------------------------------------|
B|------------------------------------------------------------------------------------------------|
G|-7-----7-----7-----7-----7-----7-----7-----0-----7-----------7-----6-----------6-----------0----|
D|-7-----7-----7-----7-----7-----7-----7-----0-----7-----------7-----7-----------7-----------0----|
A|-5-----5-----5-----5-----5-----5-----5-----0-----0-----------0-----0-----------0-----------0----|
E|------------------------------------------------------------------------------------------------|
+
   D5                                              Asus4             A
E|------------------------------------------------------------------------------------------------|
B|------------------------------------------------------------------------------------------------|
G|-7-----7-----7-----7-----7-----7-----7-----0-----7-----------7-----6-----------6-----------0----|
D|-7-----7-----7-----7-----7-----7-----7-----0-----7-----------7-----7-----------7-----------0----|
A|-5-----5-----5-----5-----5-----5-----5-----0-----0-----------0-----0-----------0-----------0----|
E|------------------------------------------------------------------------------------------------|



BRIDGE:
   Embb5/A
E|------------------------------------------------------------------------------------------------|
B|------------------------------------------------------------------------------------------------|
G|-------------12----------------12----------------------------------12---------------------------|
D|-------14----------------14----------------14----------------14----------------------14---------|
A|-12----------------12----------------12----------------12----------------------12---------------|
E|------------------------------------------------------------------------------------------------|
+
   Dm/A
E|------------------------------------------------------------------------------------------------|
B|------------------------------------------------------------------------------------------------|
G|-------------10----------------10----------------------------------10---(10)--------------------|
D|-------12----------------12----------------12----------------12----------------------12---------|
A|-12----------------12----------------12----------------12----------------------12---------------|
E|------------------------------------------------------------------------------------------------|
+
   Embb5/A
E|------------------------------------------------------------------------------------------------|
B|------------------------------------------------------------------------------------------------|
G|-------------12----------------12----------------------------------12---------------------------|
D|-------14----------------14----------------14----------------14----------------------14---------|
A|-12----------------12----------------12----------------12----------------------12---------------|
E|------------------------------------------------------------------------------------------------|
+
   Dm/A
E|------------------------------------------------------------------------------------------------|
B|------------------------------------------------------------------------------------------------|
G|-------------10----------------10----------------------------------10---(10)--------------------|
D|-------12----------------12----------------12----------------12----------------------12---------|
A|-12----------------12----------------12----------------12----------------------12---------------|
E|------------------------------------------------------------------------------------------------|
+
   Embb5/A
E|------------------------------------------------------------------------------------------------|
B|------------------------------------------------------------------------------------------------|
G|-------------12----------------12----------------------------------12---(12)--------------------|
D|-------14----------------14----------------14----------------14----------------------14---------|
A|-12----------------12----------------------------------12----------------------12---------------|
E|------------------------------------------------------------------------------------------------|
+
   Dm/A
E|------------------------------------------------------------------------------------------------|
B|------------------------------------------------------------------------------------------------|
G|-------------10----------------10----------------------------------10---(10)--------------------|
D|-------12----------------12----------------12----------------12----------------------12---------|
A|-12----------------12----------------12----------------12----------------------12---------------|
E|------------------------------------------------------------------------------------------------|
+
   Embb5/A
E|------------------------------------------------------------------------------------------------|
B|------------------------------------------------------------------------------------------------|
G|-------------12----------------12----------------------------------12---------------------------|
D|-------14----------------14----------------14----------------14----------------------14---------|
A|-12----------------12----------------12----------------12----------------------12---------------|
E|------------------------------------------------------------------------------------------------|
+
   Dm/A
E|------------------------------------------------------------------------------------------------|
B|------------------------------------------------------------------------------------------------|
G|-------------10----------------10----------------------------------10---------------------------|
D|-------12----------------12----------------12----------------12---------------------------------|
A|-12----------------12----------------------------------12----------------------12---------------|
E|------------------------------------------------------------------------------------------------|



OUTRO:
   D5                                              Asus4             A
E|------------------------------------------------------------------------------------------------|
B|------------------------------------------------------------------------------------------------|
G|-7-----7-----7-----7-----7-----7-----7-----0-----7-----------7-----6-----------6-----------0----|
D|-7-----7-----7-----7-----7-----7-----7-----0-----7-----------7-----7-----------7-----------0----|
A|-5-----5-----5-----5-----5-----5-----5-----0-----0-----------0-----0-----------0-----------0----|
E|------------------------------------------------------------------------------------------------|
+
   D5                                              Asus4             A
E|------------------------------------------------------------------------------------------------|
B|------------------------------------------------------------------------------------------------|
G|-7-----7-----7-----7-----7-----7-----7-----0-----7-----------7-----6-----------6-----------0----|
D|-7-----7-----7-----7-----7-----7-----7-----0-----7-----------7-----7-----------7-----------0----|
A|-5-----5-----5-----5-----5-----5-----5-----0-----0-----------0-----0-----------0-----------0----|
E|------------------------------------------------------------------------------------------------|
+
   D5                                              Asus4             A
E|------------------------------------------------------------------------------------------------|
B|------------------------------------------------------------------------------------------------|
G|-7-----7-----7-----7-----7-----7-----7-----0-----7-----------7-----6-----------6----------------|
D|-7-----7-----7-----7-----7-----7-----7-----0-----7-----------7-----7-----------7----------------|
A|-5-----5-----5-----5-----5-----5-----5-----0-----0-----------0-----0-----------0----------------|
E|------------------------------------------------------------------------------------------------|



SONG STRUCTURE:

INTRO
VERSE
PRE-CHORUS
CHORUS
VERSE
PRE-CHORUS
CHORUS
BRIDGE
INTRO
VERSE
PRE-CHORUS
OUTRO



That's it.  Please leave any comments, questions, or requests.  Cheers!
-Bennyshambles78-


Добавлено: 05.12.2015
Другие материалы по этой песне:
  • Аккорды и текст

Страница создана 05.12.2015
http://primanota.ru/sensations-fix/do-you-love-me-chords.htm
Привет, Гость.
Предлагаем пройти революционный курс по гитаре.
Подарок от PrimaNota.Ru, забирай!