PrimaNota.ru - самый крупный в мире бесплатный архив песенных текстов, аккордов, табулатур и нот


Sensational Alex Harvey Band - Faith Healer - таба, бас-таба, видео

Регистрация Запомнить меня
Войти через:  Facebook Google Twitter Vk Yandex Mail.ru

Sensational Alex Harvey Band - Faith Healer - таба, бас-таба, видео

Печатать
Просмотров: 111
Авторы: Hugh McKenna, Alex Harvey

This was floating around on the net, I fixed up a couple of things.


Faith Healer

Starts off in G, sounds pretty cool when it's palm muted. Listen to the song to get the rhythm and 
strum the g power chord.

|----------------|----------------|----------------|
|3---------------|5---3-----------|5---3-----------|
|3---------------|5---3-----------|5---3-----------|
|3---------------|5-5-3-----------|--5-------------|
|----------------|--5-------------|--5-------------|
|----------------|----------------|----------------|

Alternatively

|----------------|----------------|----------------|
|----------------|----------------|----------------|
|8---------------|10----8---------|----------------|
|6---------------|8--10-6---------|----------------|
|----------------|---8------------|----------------|
|----------------|----------------|----------------|

 Chorus
 Bb               A                G
|----------------|----------------|----------------|----------------|
|----------------|----------------|----------------|----------------|
|3---------------|2---------------|----------------|----------------|
|3---------------|2---------------|----------3h5p3-|---------3h5p3--|
|1---------------|0---------------|3h5-3h5-5------5|3h5-3h5-5------5|
|----------------|----------------|----------------|----------------|

|------------------------------------------|
|------------------------------------------|
|---------------------5*-------------------|
|-5*--7*--8*--7*--8*--5*--8*--7*--5*-------|
|-5*--7*--8*--7*--8*--3*--8*--7*--5*---==--|
|-3*--5*--6*--5*--6*------6*--5*--3*-------|

 Guitar 1                          Guitar 2
|----------------|----------------|6b-5-3---6b-5-3-|6b-5-3---6b-5-3-|
|----------------|----------------|-------4-------4|-------4-------4|
|3b-2-0---3b-2-0-|3b-2-0---3b-2-0-|----------------|----------------|
|-------1-------1|-------1-------1|----------------|----------------|
|----------------|----------------|----------------|----------------|
|----------------|----------------|----------------|----------------|
Добавлено: 01.08.2014
Другие материалы по этой песне:

Страница создана 02.05.2012
http://primanota.ru/sensational-alex-harvey-band/faith-healer-chords.htm
Привет, Гость.
Предлагаем пройти революционный курс по гитаре.
Подарок от PrimaNota.Ru, забирай!