PrimaNota.ru - самый крупный в мире бесплатный архив песенных текстов, аккордов, табулатур и нот


Sensach - Jingle Bells - таба

Регистрация Запомнить меня
Войти через:  Facebook Google Twitter Vk Yandex Mail.ru

Sensach - Jingle Bells - таба

Печатать
Просмотров: 52
Новый альбом группы 'Черный Кузнец' по культовому сериалу 'Сверхъестественное'!
[Intro]
e|--8-8-8-5-5-5-8-5-3-|
B|--------------------|
G|--------------------|
D|--------------------|
A|--------------------|
E|--------------------|

[Chorus]
e|-----------------------------------------------------------------------|
B|-0-0-0-0-0-0-0-3-----0---1-1-1-1-1-0-0-0-0-----0---3-------------------|
G|-----------------0-2-----------------------2-2---2---------------------|
D|-----------------------------------------------------------------------|
A|-----------------------------------------------------------------------|
E|-----------------------------------------------------------------------|
Jingle bells, jingle bells jingle all the way. Oh what fun it is to ride in a one horse open sleigh hey

e|------------------------------------------------------------------|
B|--0-0-0-0-0-0-0-3-----0---1-1-1-1-1-0-0-0-0-3-3-1-----------------|
G|------------------0-2-----------------------------2-0-------------|
D|------------------------------------------------------------------|
A|------------------------------------------------------------------|
E|------------------------------------------------------------------|
Jingle bells, jingle bells jingle all the way. Oh what fun it is to ride in a one horse open sleigh.

[Outro]
e|----------------3--------------------------------------|
B|--8-8-8-4-4-4-4-0--------------------------------------|
G|----------------0--------------------------------------|
D|----------------0--------------------------------------|
A|----------------2--------------------------------------|
E|----------------3--------------------------------------|
Добавлено: 23.01.2018
Другие материалы по этой песне:
  • Аккорды и текст

Страница создана 23.01.2018
http://primanota.ru/sensach/jingle-bells-chords.htm
Привет, Гость.
Предлагаем пройти революционный курс по гитаре.
Подарок от PrimaNota.Ru, забирай!