PrimaNota.ru - самый крупный в мире бесплатный архив песенных текстов, аккордов, табулатур и нот


Senor Flavio - El Secreto - бас-таба, видео

Регистрация Запомнить меня
Войти через:  Facebook Google Twitter Vk Yandex Mail.ru

Senor Flavio - El Secreto - бас-таба, видео

Печатать
Просмотров: 87
Уроки эстрадного вокала в Санкт-Петербурге
I found this song free on iTunes, it's got a nice bass line. these are the different 
patterns played throughout the song. you can listen to the original and piece in where to 
play which part. hope it makes sense, have fun!

G:------------------------------------------------|
D:--------0—0---------2—2—0---------0—0--------2--|
A:-0--0---------2--2---------2—0—0-------2—2------|
E:------------------------------------------------|

G:-------------------------------------|
D:--------0—0-----------2—2------------|
A:-0--0-----------2---2----------------|
E:-------------------------------------|

G:-------------------------------|
D:--------0—0-----------3/4—3/4--|
A:-0--0---------2---2------------|
E:-------------------------------|

G:---------------------------------------|
D:------------0-0-0-0------------2-2-2-2-|
A:-0-0-0-0------------2-2-2-2------------|
E:---------------------------------------|

G:---------4-7-2—2-4-2----------4-7--0--0--2--2--------------|
D:-0—0---------------------4—4---------------------0-0-0-0-0-|
A:-----------------------------------------------------------|
E:-----------------------------------------------------------|
Добавлено: 06.11.2013
Другие материалы по этой песне:
  • Аккорды и текст

Страница создана 06.11.2013
http://primanota.ru/senor-flavio/el-secreto-chords.htm
Привет, Гость.
Предлагаем пройти революционный курс по гитаре.
Подарок от PrimaNota.Ru, забирай!