PrimaNota.ru - самый крупный в мире бесплатный архив песенных текстов, аккордов, табулатур и нот


Senium - Drone - таба, видео

Регистрация Запомнить меня
Войти через:  Facebook Google Twitter Vk Yandex Mail.ru

Senium - Drone - таба, видео

Печатать
Просмотров: 94
Уроки эстрадного вокала в Санкт-Петербурге
-------------------------------------------------------------------------------
                             Drone- Senium
-------------------------------------------------------------------------------
Tabbed by: Andrew McNicholas
E-mail: a.mcnicholas@yahoo.com
 
Tuning: Eb G# C# F# Bb Eb

Main riff
e|---------------------------------------------------------------------------|
B|---------------------------------------------------------------------------|
G|---------------------------------------------------------------------------|
D|--4-4--3--2--2--4-4--6-3-2-------------------------------------------------|
A|--4-4--3--2--2--4-4--6-3-2-------------------------------------------------|
E|--2-2--1--0--0--2-2--4-1-0-------------------------------------------------|

Pre chorus
e|----0-0-0-0-0-0-0-0-0-0--| 
B|----0-0-0-0-0-0-0-0-0-0--|
G|----6-6-6-6-6-6-6-6-6-6~-|
D|-------------------------|
A|-------------------------|
E|-------------------------|

Chorus
e|---------------------------------------------------------------------------|
B|---------------------------------------------------------------------------|
G|---------------------------------------------------------------------------|
D|--2-2-2-5-5-5-7-7-7-7-7-7-7-7----------------------------------------------|
A|--2-2-2-5-5-5-7-7-7-7-7-7-7-7----------------------------------------------|
E|--0-0-0-3-3-3-5-5-5-5-5-5-5-5----------------------------------------------|

Solo  
e|-------------------------------------------------------------------------------|
B|-------------------------------------------------------------------------------|
G|--17-17-17-17-17--17-17-17-17-17--17-17-17-17-17--17-17-17-16-16-16-16-15-15-15| 
D|--x--x--x--x--x---x--x--x--x--x---x--x--x--x--x---x--x--x--x--x--x--x--x--x--x-|
A|--15 15 15 15 15~ 15 15 15 15 15~ 15 15 15 15 15~ 15 15 15 14 14 14 14 13 13 13|
E|-------------------------------------------------------------------------------|
Play this twice and then play:
e|-----------------------------------------------------------------------------------|
B|-----------------------------------------------------------------------------------|
G|--17-17-17-17-17---17-17-17-17-17---17-17-17-17-17---17-17-17-17-16-16-16-15-15-15~|
D|--16-16-16-16-16---16-16-16-16-16---16-16-16-16-16---16-16-16-16-15-15-15-14-14-14~| 
A|--15-15-15-15-15---15-15-15-15-15---15-15-15-15-15---15-15-15-15-14-14-14-13-13-13~| 
E|-----------------------------------------------------------------------------------|

e|---------------------------------------------------------------------------|
B|------------------18~-18~-18~-18~-18~\-------------------------------------| 
G|--17-17-17-17-17--17--17--17--17--17~\-------------------------------------|
D|--16-16-16-16-16--16~-16~-16~-16~-16~\-------------------------------------|
A|--15-15-15-15-15--15~-15~-15~-15~-15~\-------------------------------------| 
E|---------------------------------------------------------------------------|

e|-----5-------------------------------------------------5-------------------|
B|-------3-4~-4-3 ------------------------------------------3-4-4-3-0--------| 
G|--5-------------5----play 8 times and then play:----5-----------------2~---|
D|---------------------------------------------------------------------------|
A|---------------------------------------------------------------------------|
E|---------------------------------------------------------------------------|
After solo/outro
e|----------------------------------------------------------------------------------------------|
B|----------------------------------------------------------------------------------------------|
G|----------------------------------------------------------------------------------------------|
D|--7-7-7-7-7-7-7-5-5-5-5-5-5-5-4-4-4-4-4-4-4-33333333--Play 4 times and then end with 33333333-|
A|--7-7-7-7-7-7-7-5-5-5-5-5-5-5-4-4-4-4-4-4-4-33333333---------------------------------33333333-| 
E|--5-5-5-0-5-0 5-3-3-3-0-3-0-3-2-2-2-0-2-0-2-11111111---------------------------------11111111-|

End on main riff

************************************

| /   slide up
| \   slide down
| h   hammer-on
| p   pull-off
| ~   vibrato
| +   harmonic
| x   Mute note
| b   Bend
| pb  Pre-bend
| br  Bend release
| pbr Pre-bend release
| brb Bend release bend

************************************
Добавлено: 23.06.2016
Вам также может быть интересно:
Другие материалы по этой песне:
  • Аккорды и текст

Страница создана 23.06.2016
http://primanota.ru/senium/drone-chords.htm
Привет, Гость.
Предлагаем пройти революционный курс по гитаре.
Подарок от PrimaNota.Ru, забирай!