PrimaNota.ru - самый крупный в мире бесплатный архив песенных текстов, аккордов, табулатур и нот


Senium - Anything You Say - таба, видео

Регистрация Запомнить меня
Войти через:  Facebook Google Twitter Vk Yandex Mail.ru

Senium - Anything You Say - таба, видео

Печатать
Просмотров: 48
Уроки эстрадного вокала в Санкт-Петербурге
-------------------------------------------------------------------------------
                             Anything You Say - Senium
-------------------------------------------------------------------------------
Tabbed by: Kyle Anderson

Tuning: half-step down

Intro

e|---------------------------------------------------------------------------|
B|---------------------------------------------------------------------------|
G|--------------------------------------------------------/9-9-9-------------|
D|-4-4-4---7-7-8---4-4-4---7-7-8---4-4-4---7-7-8---4-4-4--/9-9-9-------------|
A|-4-4-4---7-7-8---4-4-4---7-7-8---4-4-4---7-7-8---4-4-4--/7-7-7-------------|
E|-2-2-2---5-5-6---2-2-2---5-5-6---2-2-2---5-5-6---2-2-2---------------------|

Play Intro three times then this

e|---------------------------------------------------------------------------|
B|---------------------------------------------------------------------------|
G|---------------------------------------------------------------------------|
D|-4-4-4---7-7-8---4-4-4---7-7-8---4-4-4---7-7-8---4-4-4---7-7-7-8-----------|
A|-4-4-4---7-7-8---4-4-4---7-7-8---4-4-4---7-7-8---4-4-4---7-7-7-8-----------|
E|-2-2-2---5-5-6---2-2-2---5-5-6---2-2-2---5-5-6---2-2-2---5-5-5-6-----------|

Chorus

e|---------------------------------------------------------------------------|
B|---------------------------------------------------------------------------|
G|---------------------------------7-7-7-7-7-7-7-7---------------------------|
D|-9-9-9-9-9-9-9-8-7-7-7-7-7-7-7-7-7-7-7-7-7-7-7-7--5-5-5-5-5-5-5-5----------|
A|-9-9-9-9-9-9-9-8-7-7-7-7-7-7-7-7-5-5-5-5-5-5-5-5--5-5-5-5-5-5-5-5----------|
E|-7-7-7-7-7-7-7-6-5-5-5-5-5-5-5-5------------------3-3-3-3-3-3-3-3----------|

Around 2:20 play this part

e|---------------------------------------------------------------------------|
B|---------------------------------------------------------------------------|
G|---------------------------------------------------------------------------|
D|-4-4-4-2-4--2-4--2-4-4-b7--------------------------------------------------|
A|-4-4-4-2-4--2-4--2-4-4-b7--------------------------------------------------|
E|-2-2-2-0-2--0-2--0-2-2-b5--------------------------------------------------|

It repeats a bunch of times then picks up again into this

e|---------------------------------------------------------------------------|
B|---------------------------------------------------------------------------|
G|---------------------------------------------------------------------------|
D|-2-4-4--4-2---4-4--4-2---4-4--4-2---4-b4-2---------------------------------|
A|-2-4-4--4-2---4-4--4-2---4-4--4-2---4-b4-2---------------------------------|
E|-0-2-2--2-0---2-2--2-0---2-2--2-0---2-b2-0---------------------------------|

After 4 times it changes to this

e|---------------------------------------------------------------------------|
B|---------------------------------------------------------------------------|
G|---------------------------------------------------------------------------|
D|-2-4-4--4-2---4-4--4-2---4-4--4-2---4-4-7-7--------------------------------|
A|-2-4-4--4-2---4-4--4-2---4-4--4-2---4-4-7-7--------------------------------|
E|-0-2-2--2-0---2-2--2-0---2-2--2-0---2-2-5-5--------------------------------|

Then back to the chorus

End with Intro



************************************

| /   slide up
| \   slide down
| h   hammer-on
| p   pull-off
| ~   vibrato
| +   harmonic
| x   Mute note
| b   Bend
| pb  Pre-bend
| br  Bend release
| pbr Pre-bend release
| brb Bend release bend

************************************
Добавлено: 08.08.2015
Вам также может быть интересно:
Другие материалы по этой песне:
  • Аккорды и текст

Страница создана 08.08.2015
http://primanota.ru/senium/anything-you-say-chords.htm
Привет, Гость.
Предлагаем пройти революционный курс по гитаре.
Подарок от PrimaNota.Ru, забирай!