PrimaNota.ru - самый крупный в мире бесплатный архив песенных текстов, аккордов, табулатур и нот


Senar Senja - Dialog Hujan - таба, видео

Регистрация Запомнить меня
Войти через:  Facebook Google Twitter Vk Yandex Mail.ru

Senar Senja - Dialog Hujan - таба, видео

Печатать
Просмотров: 56
-------------------------------------------------------------------------------
                             DIALOG HUJAN - SENAR SENJA
-------------------------------------------------------------------------------
Tabbed by: Senar Senja

Tuning: standard
A=Do

4/4
60 bpm

INTRO

   A               D               F               E         
e|-------0---------------0---------------3---------------0-------------------|
B|---------0-----------2---2-----------1---1-----------0---0-----------------|
G|-----2-----2-------2-------2-------2-------2-------1-------1---------------|
D|---2-------------0-----------0---3-----------3---2-----------2-------------|
A|-0-----------0-------------------------------------------------------------|
E|---------------------------------------------------------------------------|

   A               D               F               E
e|-------0---------------0---------------3---------------0-------------------|
B|---------0-----------2---2-----------1---1-----------0---0-----------------|
G|-----2-----2-------2-------2-------2-------2-------1-------1---------------|
D|---2-------------0-----------0---3-----------3---2-----------2-------------|
A|-0-----------0-------------------------------------------------------------|
E|---------------------------------------------------------------------------|

VERSE

   A               D               F               E
e|-------0---------------0---------------3---------------0-------------------|
B|---------0-----------2---2-----------1---1-----------0---0-----------------|
G|-----2-----2-------2-------2-------2-------2-------1-------1---------------|
D|---2-------------0-----------0---3-----------3---2-----------2-------------|
A|-0-----------0-------------------------------------------------------------|
E|---------------------------------------------------------------------------|
   Bicara rindu    Bicara haru     Luangkan ruang imajimu

   A               D               F               E
e|-------0---------------0---------------3---------------0-------------------|
B|---------0-----------2---2-----------1---1-----------0---0-----------------|
G|-----2-----2-------2-------2-------2-------2-------1-------1---------------|
D|---2-------------0-----------0---3-----------3---2-----------2-------------|
A|-0-----------0-------------------------------------------------------------|
E|---------------------------------------------------------------------------|
   Bernyanyi merdu Bernyanyi sendu Bebaskan birunya hatimu

REFF

           D               C#m       F#maj7  Bm            Dm7     A
e|---------------0---------------4-----6-----------2-------------------------0--------|
B|-------------2---2---------------5---5-------------3-----------6-------------0------|
G|-----------2-------2---------4-----4-6---------2-----2-------5---5-------2-----2----|
D|---------0-----------0-----6---------4-------4-------------7-------7---2------------|
A|-------------------------4-----------------2-------------5-----------0-----------0--|
E|------------------------------------------------------------------------------------|
   Tanpa kata      Tanpa nada       Rintik hujan pun menafsirkan   kedamaian         


           D               C#m       F#maj7  Bm              E
e|---------------0---------------4-----6-----------2---------------0------------------|
B|-------------2---2---------------5---5-------------3---------------0----------------|
G|-----------2-------2---------4-----4-6---------2-----2---------1-----1--------------|
D|---------0-----------0-----6---------4-------4---------------2---------2------------|
A|-------------------------4-----------------2-----------2----------------------------|
E|-----------------------------------------------------------0------------------------|
   Hanya rasa     Hanya prasangka  Yang terdengar di dalam..           Dialog....

INTERLUDE

   A               D               F               E         
e|-------0---------------0---------------3---------------0-------------------|
B|---------0-----------2---2-----------1---1-----------0---0-----------------|
G|-----2-----2-------2-------2-------2-------2-------1-------1---------------|
D|---2-------------0-----------0---3-----------3---2-----------2-------------|
A|-0-----------0-------------------------------------------------------------|
E|---------------------------------------------------------------------------|
 Hujan....

Guitar Melody

e|-9-10-10/12-12-------12/14-12-10h9--------------------8-8h10-8--------------8-10/12---7-9-9/10-9-7------|
B|---------------10-10---------------10-12-10--------10----------10--------10-----------7------------10-9-|
G|-------------------------------------------------9----------------9----9--------------7-----------------|
D|----------------------------------------------10--------------------10----------------------------------|
A|--------------------------------------------------------------------------------------------------------|
E|--------------------------------------------------------------------------------------------------------|

   A               D               F               E               E
e|-------0---------------0---------------3---------------0---------------0------------|
B|---------0-----------2---2-----------1---1-----------0---0-----------0---0----------|
G|-----2-----2-------2-------2-------2-------2-------1-------1-------1-------1--------|
D|---2-------------0-----------0---3-----------3---2-----------2---2-----------2------|
A|-0-----------0----------------------------------------------------------------------|
E|------------------------------------------------------------------------------------|

Guitar Melody

e|-7-9-10-10/12-10-9-10h9------------8-8-7h8-------------------------12---9-----9-------12---------|
B|------------------------10-12-10-----------10-10/12-10-9-10---10-9------7-7-----7-----10---------|
G|------------------------------------------------------------------------7---7-----7---9----------|
D|-------------------------------------------------------------------------------------------------|
A|-------------------------------------------------------------------------------------------------|
E|-------------------------------------------------------------------------------------------------|

REFF

           D               C#m       F#maj7  Bm            Dm7     A
e|---------------0---------------4-----6-----------2-------------------------0--------|
B|-------------2---2---------------5---5-------------3-----------6-------------0------|
G|-----------2-------2---------4-----4-6---------2-----2-------5---5-------2-----2----|
D|---------0-----------0-----6---------4-------4-------------7-------7---2------------|
A|-------------------------4-----------------2-------------5-----------0-----------0--|
E|------------------------------------------------------------------------------------|
   Tanpa kata      Tanpa nada       Rintik hujan pun menafsirkan   kedamaian         

           D               C#m       F#maj7  Bm              E
e|---------------0---------------4-----6-----------2---------------0------------------|
B|-------------2---2---------------5---5-------------3---------------0----------------|
G|-----------2-------2---------4-----4-6---------2-----2---------1-----1--------------|
D|---------0-----------0-----6---------4-------4---------------2---------2------------|
A|-------------------------4-----------------2-----------2----------------------------|
E|-----------------------------------------------------------0------------------------|
   Hanya rasa     Hanya prasangka  Yang terdengar di dalam.. Oo ooo oooohhhhh....

           D               C#m       F#maj7  Bm            Dm7     A
e|---------------0---------------4-----6-----------2-------------------------0--------|
B|-------------2---2---------------5---5-------------3-----------6-------------0------|
G|-----------2-------2---------4-----4-6---------2-----2-------5---5-------2-----2----|
D|---------0-----------0-----6---------4-------4-------------7-------7---2------------|
A|-------------------------4-----------------2-------------5-----------0-----------0--|
E|------------------------------------------------------------------------------------|
   Tanpa kata      Tanpa nada       Rintik hujan pun menafsirkan   kedamaian         

           D               C#m       F#maj7  Bm              E
e|---------------0---------------4-----6-----------2---------------0------------------|
B|-------------2---2---------------5---5-------------3---------------0----------------|
G|-----------2-------2---------4-----4-6---------2-----2---------1-----1--------------|
D|---------0-----------0-----6---------4-------4---------------2---------2------------|
A|-------------------------4-----------------2-----------2----------------------------|
E|-----------------------------------------------------------0------------------------|
   Hanya rasa     Hanya prasangka  Yang terdengar di dalam..           Dialog....

ENDING

   A           A/Bb  A           A/Bb A           A/Bb A
e|------------------------------------------------------------------+0------------------------|
B|-------2-----3-----------2-----3----------2-----3----------2---+2---------------------------|
G|-----1---1---2---------1---1---2--------1---1---2--------1---1------------------------------|
D|---2-------2-3-------2-------2-3------2-------2-3------2------------------------------------|
A|-0-----------0-----0-----------0----0-----------0----0--------------------------------------|
E|--------------------------------------------------------------------------------------------|
 Hujan....



************************************

| /   slide up
| \   slide down
| h   hammer-on
| p   pull-off
| ~   vibrato
| +   harmonic
| x   Mute note
| b   Bend
| pb  Pre-bend
| br  Bend release
| pbr Pre-bend release
| brb Bend release bend

************************************
Добавлено: 25.06.2016
Другие материалы по этой песне:
  • Аккорды и текст

Страница создана 25.06.2016
http://primanota.ru/senar-senja/dialog-hujan-chords.htm
Привет, Гость.
Предлагаем пройти революционный курс по гитаре.
Подарок от PrimaNota.Ru, забирай!