PrimaNota.ru - самый крупный в мире бесплатный архив песенных текстов, аккордов, табулатур и нот


Semisonic - I Wish - текст песни, таба, видео

Регистрация Запомнить меня
Войти через:  Facebook Google Twitter Vk Yandex Mail.ru

Semisonic - I Wish - текст песни, таба, видео

Печатать
Просмотров: 229
This tune is off Semisonic's new record All About Chemistry

I Wish

Intro:

E-----------------|-----------------|-----------------|-----------------|
B-----------------|-----------------|-----------------|-----------------|
G-----------------|-----------------|-11----9-----7---|-6---9---7----6--|
D-11----9-----7---|-----------------|-----------------|-----------------|
A-----------------|-11----9-----7---|-----------------|-----------------|
E-----------------|-----------------|-----------------|-----------------|

E-----------------|-----------------|-----------------|-----------------|
B-----------------|-7-----5-----4---|-----------------|-----------------|
G-6-----4-----2---|-----------------|-6-----------4---|-6-----4-----2---|
D-----------------|-----------------|-----------------|-----------------|
A-----------------|-----------------|-----------------|-----------------|
E-----------------|-----------------|-----------------|-----------------|

Chorus Riff:

E-----------------|-----------------|
B-----------------|-----------------|
G-7-----9----11---|-----------------|
D-----------------|-7-----9----11---|
A-----------------|-----------------|
E-----------------|-----------------|


Chorus:

D
I can try to please you (Riff)
A
Get down on my knees for you (Riff)
Em
Go outside and freeze for you
D
Cross the high seas for you
G       A
Whatever you need me to
D
I can climb the trees for you (Riff)
A
Twist in the breeze for you (Riff)
Em          D
But there's one thing that I can never do
G   D
I can't believe for you
Em  A
I can't believe in me for you


Lyrics:

I wish I could be anyone but the one that I am now
I wish I could see any scene but the one I hang around
I wish I could do anything but the things I always do
No matter how I try to sing along
Something is always wrong
What I wish I knew

I wish I could drive in the car that you drive around the Bay
I wish I could ride in the back seat you're riding in today
I wish I could be more like someone you wish that I could be
No matter how I change it anyway
You won't even say if you really want me

I can try to please you
Get down on my knees for you
Go outside and freeze for you
Cross the high seas for you
Whatever you need me to
I can climb the trees for you
Twist in the breeze for you
But there's one thing that I can never do
I can't believe for you
I can't believe in me for you

I wish I could turn into somebody far, far away
I wish I could make myself satisfactory in every way
I wish I could know whether you really know what you need
If I could only be somebody else
I wouldn't be myself
And maybe you'd want me

I can try to please you
Get down on my knees for you
Go outside and freeze for you
Swim the high seas for you
Whatever you need me to
I've been climbing the trees for you
Twisting in the breeze for you
But one thing I can never, never do
I can't believe for you
I can't believe for you
I can't believe in me for you

There is a long jam session at the end so just fool around until something sounds good.
Добавлено: 06.03.2012
Другие материалы по этой песне:
  • Аккорды и текст

Страница создана 02.03.2012
http://primanota.ru/semisonic/i-wish-chords.htm
Привет, Гость.
Предлагаем пройти революционный курс по гитаре.
Подарок от PrimaNota.Ru, забирай!