PrimaNota.ru - самый крупный в мире бесплатный архив песенных текстов, аккордов, табулатур и нот


Self - Borateen - текст песни, таба, видео

Регистрация Запомнить меня
Войти через:  Facebook Google Twitter Vk Yandex Mail.ru

Self - Borateen - текст песни, таба, видео

Печатать
Просмотров: 80
-------------------------------------------------------------------------------
                             BORATEEN - Self
-------------------------------------------------------------------------------
Tabbed by: sElfTabs
E-mail: pdiddle1994@gmail.com

Tuning: Drop D

Verse: (*)~ DO NOT PLAY ON THE THIRD TIME 
e|-----------|------------------------------------------------------------------|
B|-----------|------------------------------------------------------------------|
G|-----------|------------------------------------------------------------------|
D|-----------|-3-x-3-3-x-3-3-x-3-4-4--4-3-3-8-8-x-------------------------------|
A|-0-1-0-1-0*|-3-x-3-3-x-3-3-x-3-4-4--4-3-3-8-8-x-------------------------------|
D|-0-1-0-1-0*|-3-x-3-3-x-3-3-x-3-4-4--4-3-3-8-8-x-------------------------------|

Pre-Chorus: (*)~ Continue muting until needed (**)~ Continue strumming until needed
e|------------------------------------------------------------------------------|
B|------------------------------------------------------------------------------|
G|------------------------------------------------------------------------------|
D|-x-x-x*-10-10-9-8-8-8-8-10-10-10**--------------------------------------------|
A|-x-x-x*-10-10-9-8-8-8-8-10-10-10**--------------------------------------------|
D|-x-x-x*-10-10-9-8-8-8-8-10-10-10**--------------------------------------------|

Chorus:
e|----------0-------------0-------------0---------------------------------------|
B|----------0-------------0-------------0---------------------------------------|
G|----------0-------------0-------------0---------------------------------------|
D|-9-9-10-0---0--9-9-10-0---0--9-9-10-0---0--10-10-9-8-8-8----------------------|
A|-9-9-10-0---0--9-9-10-0---0--9-9-10-0---0--10-10-9-8-8-8----------------------|
D|-9-9-10-0---0--9-9-10-0---0--9-9-10-0---0--10-10-9-8-8-8----------------------|

Sorry, I was not able to figure out the bridge by ear...

************************************

| /   slide up
| \   slide down
| h   hammer-on
| p   pull-off
| ~   vibrato
| +   harmonic
| x   Mute note
| b   Bend
| pb  Pre-bend
| br  Bend release
| pbr Pre-bend release
| brb Bend release bend

************************************
Добавлено: 10.12.2015
Другие материалы по этой песне:
  • Аккорды и текст

Страница создана 18.06.2012
http://primanota.ru/self/borateen-chords.htm
Привет, Гость.
Предлагаем пройти революционный курс по гитаре.
Подарок от PrimaNota.Ru, забирай!