PrimaNota.ru - самый крупный в мире бесплатный архив песенных текстов, аккордов, табулатур и нот


Self Titled - What To Do - таба, видео

Регистрация Запомнить меня
Войти через:  Facebook Google Twitter Vk Yandex Mail.ru

Self Titled - What To Do - таба, видео

Печатать
Просмотров: 72
What To C by Self Titled

The first track on Eating Crackers In My PJs

Verse:

e|-----0-0-------------0-0---------|
B|-----2-2-------------2-2---------|
G|-----0-0-----4-4-----0-0---5---5-|
D|-----2-2-----4-4-----2-2---5---5-|
A|-----1-1-----2-2-----1-1---3---3-|
E|-0-0-0-0-0-0-----0-0-0-0-0---0---|
   . .     . .     . .     .   .

Chorus:

G A# Em C Em B Em C Em B

Chords:

    ?  G A# Em  C  B   

e|--0-----------------|
B|--2-----------------|
G|--0-----3-----5--4--|
D|--2--5--3--2--5--4--|
A|--1--5--1--2--3--2--|
E|--0--3-----0--------|


		
__________________________________ 
     
Добавлено: 21.08.2013
Другие материалы по этой песне:
  • Аккорды и текст

Страница создана 21.08.2013
http://primanota.ru/self-titled-2/what-to-do-chords.htm
Привет, Гость.
Предлагаем пройти революционный курс по гитаре.
Подарок от PrimaNota.Ru, забирай!