PrimaNota.ru - самый крупный в мире бесплатный архив песенных текстов, аккордов, табулатур и нот


Self Titled - Sunshine - таба, видео

Регистрация Запомнить меня
Войти через:  Facebook Google Twitter Vk Yandex Mail.ru

Self Titled - Sunshine - таба, видео

Печатать
Просмотров: 60
Sunshine by Self titled

The third track on Eating Crackers In My PJs

Intro:

Guitar one

e|---------------------------|
B|-----5-4---------5-4-------|
G|-1/3-----5-4-1/3-----5-4-5-|
D|---------------------------|
A|---------------------------|
E|---------------------------|

Guitar two just hits A# every once and awhile...

In the sunshine:

A# E D# B

Break thing:

A# E A# E

Chords:

   A#  E D#  B

e|--------------|
B|--------------|
G|--3--9--8--4--|
D|--3--9--8--4--|
A|--1--7--6--2--|
E|--------------|


		
__________________________________ 
     
Добавлено: 06.09.2013
Вам также может быть интересно:
Другие материалы по этой песне:
  • Аккорды и текст

Страница создана 06.09.2013
http://primanota.ru/self-titled-2/sunshine-chords.htm
Привет, Гость.
Предлагаем пройти революционный курс по гитаре.
Подарок от PrimaNota.Ru, забирай!