PrimaNota.ru - самый крупный в мире бесплатный архив песенных текстов, аккордов, табулатур и нот


Self Titled - She No Like - аккорды и текст, видео

Регистрация Запомнить меня
Войти через:  Facebook Google Twitter Vk Yandex Mail.ru

Self Titled - She No Like - аккорды и текст, видео

Печатать
Просмотров: 84
Уроки эстрадного вокала в Санкт-Петербурге
She No Like
Self Titled
She No Like by Self Titled

The seventh track on Eating Crackers In My PJs

Intro/Chorus:

C A G#

Verse:

C G# G C#

Bridge:

e|------------------|
B|------------------|
G|------------------|
D|------------------|
A|-----44443333-----|
E|-3333--------4455-|
   ................

Than play:

G C# C G# A

Chords:

    C  A  G# G  C#

e|-----------------|
B|-----------------|
G|--5-----------6--|
D|--5--7--6--5--6--|
A|--3--7--6--5--4--|
E|-----5--4--3-----|


		
__________________________________ 
     
Добавлено: 18.11.2013
Другие материалы по этой песне:
  • Аккорды и текст

Страница создана 24.09.2013
http://primanota.ru/self-titled-2/she-no-like-chords.htm
Привет, Гость.
Предлагаем пройти революционный курс по гитаре.
Подарок от PrimaNota.Ru, забирай!