PrimaNota.ru - самый крупный в мире бесплатный архив песенных текстов, аккордов, табулатур и нот


Self Titled - One Last Sad Song - аккорды и текст, видео

Регистрация Запомнить меня
Войти через:  Facebook Google Twitter Vk Yandex Mail.ru

Self Titled - One Last Sad Song - аккорды и текст, видео

Печатать
Просмотров: 76
One Last Sad Song
Self Titled
One Last Sad Song by Self Titled

The ninth track on Eating Crackers In My PJs

Intro:

C? G E? D?

Verse:

C G? Em D

Bridge part one:

Gm Cm Dm

Bridge part two:

Em Bm Cm Gm

Chords:

    C? G  E? D?

e|--3--3--3--3--|
B|--3--3--3--3--|
G|--0--0--0--2--|
D|--2--0--2--0--|
A|--3--2--2--0--|
E|-----3--0-----|

    C  G? Em D

e|-----3--0-----|
B|--5--3--0--7--|
G|--5--4--0--7--|
D|--5--5--2--7--|
A|--3--5--2--5--|
E|-----3--0-----|

    Gm Cm Dm Em Bm Cm

e|--0--0--0--0--0--0--|
B|--0--0--0--0--0--0--|
G|--0--5--7--9--0--0--|
D|--5--5--7--9--9--10-|
A|--5--3--5--7--9--10-|
E|--3-----------7--8--|


		
__________________________________ 
     
Добавлено: 21.10.2013
Другие материалы по этой песне:
  • Аккорды и текст

Страница создана 21.10.2013
http://primanota.ru/self-titled-2/one-last-sad-song-chords.htm
Привет, Гость.
Предлагаем пройти революционный курс по гитаре.
Подарок от PrimaNota.Ru, забирай!