PrimaNota.ru - самый крупный в мире бесплатный архив песенных текстов, аккордов, табулатур и нот


Self Defense Family - Apport Birds - таба, видео

Регистрация Запомнить меня
Войти через:  Facebook Google Twitter Vk Yandex Mail.ru

Self Defense Family - Apport Birds - таба, видео

Печатать
Просмотров: 56
-------------------------------------------------------------------------------
                             Apport Birds - Self Defense Family
-------------------------------------------------------------------------------
Tabbed by: doggedstraw01
E-mail: jlamalbee@aol.com

Tuning: standard


Riff 1 Play this for the whole song
e|-----------------------------------------------------|
B|----------1-------------1------------1------------1--|
G|--5--------------5------------5------------5---------|
D|-----------------------------------------------------|
A|3----33/1------3---33/1-----3---33/1-----3---33/1----|
E|-----------------------------------------------------|


Riff 2
e|----------------|
B|----9~-----8~~--|
G|/10----/10------|
D|----------------|
A|----------------|
E|----------------|


************************************

| /   slide up
| \   slide down
| h   hammer-on
| p   pull-off
| ~   vibrato
| +   harmonic
| x   Mute note
| b   Bend
| pb  Pre-bend
| br  Bend release
| pbr Pre-bend release
| brb Bend release bend

************************************
Добавлено: 07.05.2016
Другие материалы по этой песне:
  • Аккорды и текст

Страница создана 07.05.2016
http://primanota.ru/self-defense-family/apport-birds-chords.htm
Привет, Гость.
Предлагаем пройти революционный курс по гитаре.
Подарок от PrimaNota.Ru, забирай!