PrimaNota.ru - самый крупный в мире бесплатный архив песенных текстов, аккордов, табулатур и нот


Self Deception - Stay Young - бас-таба, видео

Регистрация Запомнить меня
Войти через:  Facebook Google Twitter Vk Yandex Mail.ru

Self Deception - Stay Young - бас-таба, видео

Печатать
Просмотров: 74
-------------------------------------------------------------------------------
                             Stay Young - Self deception
-------------------------------------------------------------------------------
Tabbed by:
E-mail: Smilefink93@gmail.com

Tuning: DADG

Intro:x2
G|---------------------------------------------------------------------------|
D|---------------------------------------------------------------------------|
A|-222-222-222-222-----------------------------------------------------------|
D|------------------555-555-555-555-222-222-222-222-555-555-55555555---------|

G|---------------------------------------------------------------------------|
D|---------------------------------------------------------------------------|
A|-222-222-222-222-----------------------------------------------------------|
D|------------------555-555-555-555-222-222-222-5555555555555555-LET IT RING-|

Verse:x2
G|---------------------------------------------------------------------------|
D|---------------------------------------------------------------------------|
A|-2222222222222222----------------------------------------------------------|
D|-------------------0000000000000000-2222222222222222-5555555555555555------|

( You can also play this second time in the verse for some changes)
G|--------------------------------------------------------------------4-------|
D|-----------------------------------2222222222222222-555555555555555---------|
A|-2222222222222222-5555555555555555------------------------------------------|
D|----------------------------------------------------------------------------|
Chorus x2
G|---------------------------------------------------------------------------|
D|---------------------------------------------------------------------------|
A|-222-222-222-222-----------------------------------------------------------|
D|-----------------555-555-555-555-222-222-222-222-5555555555555555----------|

End second Chorus with:
G|--------------|
D|--------------|
A|-2--Let Ring--|
D|--------------|

Verse:x2
G|---------------------------------------------------------------------------|
D|---------------------------------------------------------------------------|
A|-2222222222222222----------------------------------------------------------|
D|-------------------0000000000000000-2222222222222222-5555555555555555------|

Chorus x2
G|---------------------------------------------------------------------------|
D|---------------------------------------------------------------------------|
A|-222-222-222-222-----------------------------------------------------------|
D|-----------------555-555-555-555-222-222-222-222-5555555555555555----------|
Bridge: x4
G|----------------------------------------------------------------------------------|
D|----------------------------------------------------------------------------------|
A|-2--------------------------------------------------------------------------------|
D|---00-5-22------------------------------------------------------------------------|

Verse:x3
G|---------------------------------------------------------------------------|
D|---------------------------------------------------------------------------|
A|-2222222222222222----------------------------------------------------------|
D|-------------------0000000000000000-2222222222222222-5555555555555555------|

Outro. x1
G|---------------------------------------------------------------------------|
D|---------------------------------------------------------------------------|
A|-2-2---------------------------2-2-Let Ring--------------------------------|
D|-----5-5-2-2-5555555555555555----------------------------------------------|


| /  slide up
| \  slide down
| h  hammer-on
| p  pull-off
| ~  vibrato
| +  harmonic
| x  Mute note
===============================================================================
Добавлено: 31.12.2015
Другие материалы по этой песне:
  • Аккорды и текст

Страница создана 31.12.2015
http://primanota.ru/self-deception/stay-young-chords.htm
Привет, Гость.
Предлагаем пройти революционный курс по гитаре.
Подарок от PrimaNota.Ru, забирай!