PrimaNota.ru - самый крупный в мире бесплатный архив песенных текстов, аккордов, табулатур и нот


Self Against City - Even The Strong Wont Survive - таба, видео

Регистрация Запомнить меня
Войти через:  Facebook Google Twitter Vk Yandex Mail.ru

Self Against City - Even The Strong Wont Survive - таба, видео

Печатать
Просмотров: 118
Standard Tuning

e]------3-------3-------3-------3-------5-------5-------5-------5--------|
B]--6-------6-------6-------6-------6-------6-------6-------6------------|
G]----5---5---5---5---5---5---5---5---5---5---5---5---5---5---5---5------|
D]-----------------------------------------------------------------------|
A]-----------------------------------------------------------------------|
E]-----------------------------------------------------------------------|

                                                   *Let Ring
e]------3-------3-------3-------3-------5----------5---------------------|
B]--6-------6-------6-------6-------6-------6---6--6---------------------|
G]----5---5---5---5---5---5---5---5---5---5---5----5---------------------|
D]-----------------------------------------------------------------------|
A]-----------------------------------------------------------------------|
E]-----------------------------------------------------------------------|
Добавлено: 02.04.2012
Другие материалы по этой песне:
  • Аккорды и текст

Страница создана 01.03.2012
http://primanota.ru/self-against-city/even-the-strong-wont-survive-chords.htm
Привет, Гость.
Предлагаем пройти революционный курс по гитаре.
Подарок от PrimaNota.Ru, забирай!