PrimaNota.ru - самый крупный в мире бесплатный архив песенных текстов, аккордов, табулатур и нот


Selecter - Street Feeling - таба, видео

Регистрация Запомнить меня
Войти через:  Facebook Google Twitter Vk Yandex Mail.ru

Selecter - Street Feeling - таба, видео

Печатать
Просмотров: 55
Авторы музыки: Neol Davies

-------------------------------------------------------------------------------
                             STREET FEELING - The Selecter
-------------------------------------------------------------------------------
Tabbed by: Tyler
E-mail: hill.tyler63@yahoo.com

Tuning: Drop D

Intro/chorus
   G               C
e|-x-3-x-3-x-3-x-3-x-3-x-3-x-3-x-3-------------------------------------------|
B|-x-3-x-3-x-3-x-3-x-5-x-5-x-5-x-5-------------------------------------------|
G|-x-4-x-4-x-4-x-4-x-5-x-5-x-5-x-5-------------------------------------------|
D|---------------------------------------------------------------------------|
A|---------------------------------------------------------------------------|
E|---------------------------------------------------------------------------|

The "I Say yeahhhhhhhhhh" part
   D   
e|-5-------5-------5---------------------------------------------------------|
B|-7-------7-------7-------5-------------------------------------------------|
G|-7-------7-------7----------7----------------------------------------------|
D|-7-------7-------7-------------7--5----------------------------------------|
A|-5-------5-------5-------------------5-------------------------------------|
E|---------------------------------------------------------------------------|

Organ during the "I say yeahhhhhhhh" part
e|-17----17------------------17----17----------------------------------------|
B|-----------19------------------------19------------------------------------|
G|---------------19--17--------------------19------17--19--------------------|
D|-----------------------19--------------------19----------------------------|
A|---------------------------------------------------------------------------|
E|---------------------------------------------------------------------------|

Verse
   D               A        
e|-x-5-x-5-x-5-x-5-x-5-x-5-x-5-x-5-------------------------------------------|
B|-x-7-x-7-x-7-x-7-x-5-x-5-x-5-x-5-------------------------------------------|
G|-x-7-x-7-x-7-x-7-x-6-x-6-x-6-x-6-------------------------------------------|
D|---------------------------------------------------------------------------|
A|---------------------------------------------------------------------------|
E|---------------------------------------------------------------------------|

Pre-chorus ("He's got to get a spark to...")
   Bm        A
e|-7---------5---------------------------------------------------------------|
B|-7---------5---------------------------------------------------------------|
G|-7----7----6----6----------------------------------------------------------|
D|------9---------7----------------------------------------------------------|
A|------9---------7----------------------------------------------------------|
E|------7---------5----------------------------------------------------------|

Rhythm guitar during solo
   A                               D
e|-x-5-x-5-x-5-x-5-x-5-x-5-x-5-x-5-x-5-x-5-x-5-x-5-x-5-x-5-x-5-x-5-----------|
B|-x-5-x-5-x-5-x-5-x-5-x-5-x-5-x-5-x-7-x-7-x-7-x-7-x-7-x-7-x-7-x-7--x4-then--|
G|-x-6-x-6-x-6-x-6-x-6-x-6-x-6-x-6-x-7-x-7-x-7-x-7-x-7-x-7-x-7-x-7-----------|
D|---------------------------------------------------------------------------|
A|---------------------------------------------------------------------------|
E|---------------------------------------------------------------------------|
   
   F                               D 
e|-x-1-x-1-x-1-x-1-x-1-x-1-x-1-x-1-x-5-x-5-x-5-x-5-x-5-x-5-x-5-x-5-----------|
B|-x-1-x-1-x-1-x-1-x-1-x-1-x-1-x-1-x-7-x-7-x-7-x-7-x-7-x-7-x-7-x-7-----------|
G|-x-2-x-2-x-2-x-2-x-2-x-2-x-2-x-2-x-7-x-7-x-7-x-7-x-7-x-7-x-7-x-7-----------|
D|---------------------------------------------------------------------------|
A|---------------------------------------------------------------------------|
E|---------------------------------------------------------------------------|

e|-x-5-x-5-x-5-x-5-x-5-x-5-x-5-x-5-------------------------------------------|
B|-x-7-x-7-x-7-x-7-x-7-x-7-x-7-x-7-------------------------------------------|
G|-x-7-x-7-x-7-x-7-x-7-x-7-x-7-x-7-------------------------------------------|
D|---------------------------------------------------------------------------|
A|---------------------------------------------------------------------------|
E|---------------------------------------------------------------------------|

The guitar solo
e|---------------------------------------------------------------------------|
B|---------------------------------------------------------------------------|
G|------6--------3b4---------------------------5-------6b7-------------------|
D|--------------------------4---x4 then--------------------------------------|
A|--------------------5------------------7b8-----------------9pb10pbr9b10br9-|
E|-6b7-------------------0---------------------------------------------------|

e|---------------------------------------------------------------------------|
B|---------------------------------------------------------------------------|
G|------7+----6b7--------------------------7+--------------------------------|
D|---------------------------------------------------------------------------|
A|-------------------9pb10pbr9b10br9------------10p9-------------------------|
E|-0----------------------------------0--------------12----------------------|

The guitar part immediately after the solo is the same as during the "I say
yeahhhhhh" part

The organ part is this
e|---------------------------------------------------------------------------|
B|----------13---------------------------------------------------------------|
G|---------------------------------------------------------------------------|
D|-12------------------------------------------------------------------------|
A|---------------------------------------------------------------------------|
E|---------------------------------------------------------------------------|

Outro
   G           C  
e|-x-3-x-3-x-3-x-3-----------------------------------------------------------|
B|-x-3-x-3-x-3-x-5-----------------------------------------------------------|
G|-x-4-x-4-x-4-x-5-----------------------------------------------------------|
D|---------------------------------------------------------------------------|
A|---------------------------------------------------------------------------|
E|---------------------------------------------------------------------------|

************************************

| /   slide up
| \   slide down
| h   hammer-on
| p   pull-off
| ~   vibrato
| +   harmonic
| x   Mute note
| b   Bend
| pb  Pre-bend
| br  Bend release
| pbr Pre-bend release
| brb Bend release bend

************************************
Добавлено: 04.12.2013
Вам также может быть интересно:
Другие материалы по этой песне:
  • Аккорды и текст

Страница создана 04.12.2013
http://primanota.ru/selecter/street-feeling-chords.htm
Привет, Гость.
Предлагаем пройти революционный курс по гитаре.
Подарок от PrimaNota.Ru, забирай!