PrimaNota.ru - самый крупный в мире бесплатный архив песенных текстов, аккордов, табулатур и нот


Selecter - Missing Words - таба, бас-таба, видео

Регистрация Запомнить меня
Войти через:  Facebook Google Twitter Vk Yandex Mail.ru

Selecter - Missing Words - таба, бас-таба, видео

Печатать
Просмотров: 141
Авторы музыки: Neol Davies

-------------------------------------------------------------------------------
                             MISSING WORDS - The Selecter
-------------------------------------------------------------------------------
Tabbed by: Tyler
E-mail: hill.tyler63@yahoo.com

Tuning: Standard

Intro
   Gm           Bb            Dm
e|-3------------6-------------5----5----5------------------------------------|
B|-3------------6-------------6----6----6------------------------------------|
G|-3------------7-------------7----7----7------------------------------------|
D|-5------------8----x2 then--7----7----7------------------------------------|
A|-5------------8-------------5----5----5------------------------------------|
E|-3------------6------------------------------------------------------------|

Verse
   Dm            Bb
e|-x-5-----------x-6---------------------------------------------------------|
B|-x-6--x8-then--x-6--x8-----------------------------------------------------|
G|-x-7-----------x-7---------------------------------------------------------|
D|---------------------------------------------------------------------------|
A|---------------------------------------------------------------------------|
E|---------------------------------------------------------------------------|

Pre-chorus
   Gm           Bb            Dm
e|-3------------6------------------------------------------------------------|
B|-3------------6-------------6-6-6-6-6-6-6-6--------------------------------|
G|-3------------7-------------7-7-7-7-7-7-7-7--------------------------------|
D|-5------------8----x2 then--7-7-7-7-7-7-7-7--x2----------------------------|
A|-5------------8-------------5-5-5-5-5-5-5-5--------------------------------|
E|-3------------6------------------------------------------------------------|

Chorus
   Gm        Bb        Gm        Bb            Dm
e|-x-3-------x-6-------x-3-------x-6-----------5----5----5-------------------|
B|-x-3---x8--x-6---x8--x-3---x8--x-6---x8-then-6----6----6-------------------|
G|-x-3-------x-7-------x-3-------x-7-----------7----7----7-------------------|
D|---------------------------------------------7----7----7-------------------|
A|---------------------------------------------5----5----5-------------------|
E|---------------------------------------------------------------------------|

Solo
e|-10----10--10--------------------------------------------------------------|
B|-10----10--10-13-12-11--10--8----------------------------------------------|
G|-------------------------------10--9h10p7-------Play two times thenplay...-|
D|------------------------------------------8--------------------------------|
A|---------------------------------------------------------------------------|
E|---------------------------------------------------------------------------|

e|-10----10--10--------------------------------------------------------------|
B|-10----10--10-13-12-11--10--8----------------------------------------------|
G|-------------------------------10--9h10p7-----9h10p7-----------------------|
D|------------------------------------------8--------------------------------|
A|---------------------------------------------------------------------------|
E|---------------------------------------------------------------------------|

e|-10----10--10--------------------------------------------------------------|
B|-10----10--10-13-12-11--10--8----------------------------------------------|
G|-------------------------------10--9h10p7-----7h9h10-----------------------|
D|------------------------------------------8--------------------------------|
A|---------------------------------------------------------------------------|
E|---------------------------------------------------------------------------|

The rhythm part during the solo is the same as during the verse

************************************

| /   slide up
| \   slide down
| h   hammer-on
| p   pull-off
| ~   vibrato
| +   harmonic
| x   Mute note
| b   Bend
| pb  Pre-bend
| br  Bend release
| pbr Pre-bend release
| brb Bend release bend

************************************
Добавлено: 01.11.2013
Другие материалы по этой песне:
  • Аккорды и текст

Страница создана 29.04.2012
http://primanota.ru/selecter/missing-words-chords.htm
Привет, Гость.
Предлагаем пройти революционный курс по гитаре.
Подарок от PrimaNota.Ru, забирай!