PrimaNota.ru - самый крупный в мире бесплатный архив песенных текстов, аккордов, табулатур и нот


Seldon - Evidence - бас-таба, видео

Регистрация Запомнить меня
Войти через:  Facebook Google Twitter Vk Yandex Mail.ru

Seldon - Evidence - бас-таба, видео

Печатать
Просмотров: 85
Уроки эстрадного вокала в Санкт-Петербурге
Evidence is another song on the Ep that has solid basslines that you can barely hear.
Especially for a remake from an earlier song, I really let loose on a lot of the parts.

This one can be played on a four string as well, but I tab it EXACTLY the way I played
it. That being said, if you really want to play it on four, it can be transposed up. For
instance, playing the 3rd fret on the A string is the same as an open note on the low C 
string. I play it on the A string because it gets more crunch.





Intro:

F|---------------------------------------------------------------------9-------|
C|-----------------10-----10-----10--------------12------12---------10---10----|
G|---------8-8-7-8----7-8----7-8----8---------10----8-10----8-10-12---------12-|
C|-8-8-8-8----------------------------8-8-8-8----------------------------------|
A|-----------------------------------------------------------------------------|

F|-------------------------------------------------------------|
C|--------3-2------------3-2-----------3-2------------3-2------|
G|------------3-5------------3-------------3-5------------3----| x2
C|-0-0--0---------0-0--0--------0-0--0---------0-0--0----------|
A|-------------------------------------------------------------|

Verse:

F|----------------------------------------------------------------------------|
C|----------------------------------------------------------------------------|
G|----------------------------------------------------------------------------|
C|----------------------------------------------------------------------------|
A|-3-3-3--3-3--3--3-3--3-3-3-3-3-3-3--3-3--3--3-3--3-3-3-3-3-3-3--3-3--3--3-3-|

F|---------------------------|
C|---------------------------|
G|---------------------------| x2
C|---------8--8-8-8-3--5--7--|
A|-3-3-3-3-------------------|

Pre-chorus:

F|----------------------------------|
C|----------------------------------|
G|-0-10-8-0-7-8-0-5-0-7-0-3-0-0-3-5-| x4
C|----------------------------------|
A|----------------------------------|

Chorus:

F|-------------------------------------------------------------------|
C|-------------------------------------------------------------------|
G|-------------------------8-7-8-10-----------3-5-------3-------7----| x5
C|-8-8-8-8-8-8-8-8-8-8-8-8----------0-0-0-0-0-----0-3-3---3-7-7---7--|
A|-------------------------------------------------------------------|

Solo:

F|---------------------------------|
C|---------------------------------|
G|---------------------------------| x4
C|-000-0-0-0-0-000-0-0-0-0-000-000-|
A|---------------------------------|

F|-----------------------------------------------------------------|
C|-----------------------------------------------------------------|
G|-----------------------------------------------------------------|
C|-777-0-0-0-0-777-0-0-0-0-777-777-555-0-0-0-0-555-0-0-0-0-555-555-|
A|-----------------------------------------------------------------|

F|---------------------------------------------------------------|
C|---------------------------------------------------------------|
G|-----------------------------------------3--5-3--0-------------|
C|-333-0-0-0-0-333-0-0-0-0-333-333-0-1-3-5-----------3-1-0-1-3-5-|
A|---------------------------------------------------------------|

F|-----------------------------------------------------------------|
C|-----------------------------------------------------------------|
G|-----------------------------------------------------------------|
C|-777-0-0-0-0-777-0-0-0-0-777-777-555-0-0-0-0-555-0-0-0-0-555-555-|
A|-----------------------------------------------------------------|

F|-----------------------------------------------------------------|
C|-----------------------------------------------------------------|
G|-----------------------------------------0-3-5-7-7-8-7-5-0-3-5-7-|
C|-333-0-0-0-0-333-0-0-0-0-333-333-0-1-3-5-------------------------|
A|-----------------------------------------------------------------|

Bridge:

F|---------------------------------------------------------------------9-------|
C|-----------------10-----10-----10--------------12------12---------10---10----|
G|---------8-8-7-8----7-8----7-8----8---------10----8-10----8-10-12---------12-|
C|-8-8-8-8----------------------------8-8-8-8----------------------------------|
A|-----------------------------------------------------------------------------|

F|-------------------------------------------------------------|
C|--------3-2------------3-2-----------3-2------------3-2------|
G|------------3-5------------3-------------3-5------------3----| x2
C|-0-0--0---------0-0--0--------0-0--0---------0-0--0----------|
A|-------------------------------------------------------------|

Verse 2:

F|----------------------------------------------------------------------------|
C|----------------------------------------------------------------------------|
G|----------------------------------------------------------------------------|
C|----------------------------------------------------------------------------|
A|-3-3-3--3-3--3--3-3--3-3-3-3-3-3-3--3-3--3--3-3--3-3-3-3-3-3-3--3-3--3--3-3-|

F|---------------------------|
C|---------------------------|
G|---------------------------| x2
C|---------8--8-8-8-3--5--7--|
A|-3-3-3-3-------------------|

Chorus 2:

F|-------------------------------------------------------------------|
C|-------------------------------------------------------------------|
G|-------------------------8-7-8-10-----------3-5-------3-------7----| x9
C|-8-8-8-8-8-8-8-8-8-8-8-8----------0-0-0-0-0-----0-3-3---3-7-7---7--|
A|-------------------------------------------------------------------|

Breakdown:

F|----------------------------------------------------------------------------|
C|----------------------------------------------------------------------------|
G|----------------------------------------------------------------------------|
C|----------------------------------------------------------------------------|
A|-3-3-3--3-3--3--3-3--3-3-3-3-3-3-3--3-3--3--3-3--3-3-3-3-3-3-3--3-3--3--3-3-|

F|---------------------------|
C|---------------------------|
G|---------------------------| x2
C|---------8--8-8-8-3--5--7\-|
A|-3-3-3-3-------------------|

Chorus 3:

F|-------------------------------------------------------------------|
C|-------------------------------------------------------------------|
G|-------------------------8-7-8-10-----------3-5-------3-------7----| x6
C|-8-8-8-8-8-8-8-8-8-8-8-8----------0-0-0-0-0-----0-3-3---3-7-7---7--|
A|-------------------------------------------------------------------|

Outro:

F|---------------------------------------------------------------------9-------|
C|-----------------10-----10-----10--------------12------12---------10---10----|
G|---------8-8-7-8----7-8----7-8----8---------10----8-10----8-10-12---------12-|
C|-8-8-8-8----------------------------8-8-8-8----------------------------------|
A|-----------------------------------------------------------------------------|

F|-------------------------------------------------------------|
C|--------3-2------------3-2-----------3-2------------3-2------|
G|------------3-5------------3-------------3-5------------3----|
C|-0-0--0---------0-0--0--------0-0--0---------0-0--0----------|
A|-------------------------------------------------------------|
Добавлено: 03.10.2013
Вам также может быть интересно:
Другие материалы по этой песне:
  • Аккорды и текст

Страница создана 03.10.2013
http://primanota.ru/seldon/evidence-chords.htm
Привет, Гость.
Предлагаем пройти революционный курс по гитаре.
Подарок от PrimaNota.Ru, забирай!