PrimaNota.ru - самый крупный в мире бесплатный архив песенных текстов, аккордов, табулатур и нот


Seldon - Cry Wolf - бас-таба, видео

Регистрация Запомнить меня
Войти через:  Facebook Google Twitter Vk Yandex Mail.ru

Seldon - Cry Wolf - бас-таба, видео

Печатать
Просмотров: 73
www.facebook.com/seldonstuff

So, I've been wanting to sit down and tab out a song for a while. This is my first time 
ever actually tabbing out a full song, but I figured what better way to start than 
tabbing one of our own.

Some Notes: This is how it's played on the Stitch Re-Issue. Some of the basslines have 
been corrected since the original recordings. Tuning is in Drop C, but I play on a five 
string. A tad confusing, but I digress.

Verse 1:

F|-------------------------------------------------------------------|
C|-------------------------------------------------------------------|
G|-----3h5-----3h5-----3h5-----3h5-----5h7-----5h7-----5h7-----5h7---|
C|-0-0-----0-0-----0-0-----0-0-----0-0-----0-0-----0-0-----0-0-------|
A|-------------------------------------------------------------------|

F|------------------------------------------------------------------|
C|------------------------------------------------------------------|
G|-----7h8-----7h8-----7h8-----7h8-----8h10----8h10-----------------| x3
C|-0-0-----0-0-----0-0-----0-0-----0-0-----0-0------12-10-8-7-------|
A|------------------------------------------------------------------|

On the last one end with:

F|------------------------------------------------------------------|
C|------------------------------------------------------------------|
G|-----7h8-----7h8-----7h8-----7h8-----8h10----7/8-7~---------------|
C|-0-0-----0-0-----0-0-----0-0-----0-0-----0-0----------------------|
A|------------------------------------------------------------------|

Chorus:
                                              (this section is tapped)
F|----------------------------------------------------------------9h10h12----|
C|---------------------------------------------------------9h10h12-----------|
G|--------------------------------------------------8h10h12------------------|
C|-8-8-888-8-8-8---------------0-0-000-0-0-0-8h10h12-------------------------|
A|---------------6-6-666-6-6-6-----------------------------------------------|

F|---------------------------------------------------------------------------|
C|-------------------------------------------------7-5-----------------------|
G|-------------------------------------------8-7-5-----8-7-8-----------------|
C|-8-8-888-8-8-8---------------0-0-000-0-0-0---------------------------------|
A|---------------6-6-666-6-6-6-----------------------------------------------|
                                               (this section is tapped)
F|----------------------------------------------------------------9h10h12----|
C|---------------------------------------------------------9h10h12-----------|
G|--------------------------------------------------8h10h12------------------|
C|-8-8-888-8-8-8---------------0-0-000-0-0-0-8h10h12-------------------------|
A|---------------6-6-666-6-6-6-----------------------------------------------|

F|--------------------------------------------5------------|
C|----------------------------------------------7----------|
G|------------------------------------------------5-7-8-5--|
C|-8-8-888-8-8-8---------------0-0-000-0-0-0---------------|
A|---------------6-6-666-6-6-6-----------------------------|

Break x1:

F|----------------------------------------------------|
C|----------------------------------------------------|
G|----------------------------------------------------|
C|-0-0-0-0-0-0-0-0-0-0----0-0-0-0-0-0-0-0-0-0---12/---|
A|----------------------------------------------------|

Verse 2:

F|-----------------------------------------------------9---|
C|---------------------------------------------------8-----|
G|-------------5-8-5-0-4-5-4-0-------------5-8-5-0-7-------| x4
C|-0-0--0-0--0-----------------0-0--0-0--0-----------------|
A|---------------------------------------------------------|

Chorus:
                                              (this section is tapped)
F|----------------------------------------------------------------9h10h12----|
C|---------------------------------------------------------9h10h12-----------|
G|--------------------------------------------------8h10h12------------------|
C|-8-8-888-8-8-8---------------0-0-000-0-0-0-8h10h12-------------------------|
A|---------------6-6-666-6-6-6-----------------------------------------------|

F|---------------------------------------------------------------------------|
C|-------------------------------------------------7-5-----------------------|
G|-------------------------------------------8-7-5-----8-7-8-----------------|
C|-8-8-888-8-8-8---------------0-0-000-0-0-0---------------------------------|
A|---------------6-6-666-6-6-6-----------------------------------------------|
                                               (this section is tapped)
F|----------------------------------------------------------------9h10h12----|
C|---------------------------------------------------------9h10h12-----------|
G|--------------------------------------------------8h10h12------------------|
C|-8-8-888-8-8-8---------------0-0-000-0-0-0-8h10h12-------------------------|
A|---------------6-6-666-6-6-6-----------------------------------------------|

F|--------------------------------------------5------------|
C|----------------------------------------------7----------|
G|------------------------------------------------5-7-8-5--|
C|-8-8-888-8-8-8---------------0-0-000-0-0-0---------------|
A|---------------6-6-666-6-6-6-----------------------------|

Break 2: x1

F|--------------------------------------------------|
C|--------------------------------------------------|
G|--------------------------------------------------|
C|-0-0--0-0--0-0--0-0--0-0--0-0--0-0--0-0-----------|
A|--------------------------------------------------|

Bridge:

F|-------19~---------14~---14h15--------------------|
C|----17~---------12~------------15\12-14-15--------|
G|-15~---------10~---------------------------13~----| x3
C|--------------------------------------------------|
A|--------------------------------------------------|

Solo:

F|-------------------------------------------------------------|
C|-------------------------------------------------------------|
G|-------------------------------------------------------------|
C|-0-0--0-0--0-0--0-0--3-3--3-3--3-3--3-3--8-8--8-8--8-8--8-8--|
A|-------------------------------------------------------------|

F|------------------------|
C|------------------------|
G|------------------------| x2
C|--5-5--5-5--7-7--7-7----|
A|------------------------|

Chorus:

                                               (this section is tapped)
F|----------------------------------------------------------------9h10h12----|
C|---------------------------------------------------------9h10h12-----------|
G|--------------------------------------------------8h10h12------------------|
C|-8-8-888-8-8-8---------------0-0-000-0-0-0-8h10h12-------------------------|
A|---------------6-6-666-6-6-6-----------------------------------------------|

F|---------------------------------------------------------------------------|
C|-------------------------------------------------7-5-----------------------|
G|-------------------------------------------8-7-5-----8-7-8-----------------|
C|-8-8-888-8-8-8---------------0-0-000-0-0-0---------------------------------|
A|---------------6-6-666-6-6-6-----------------------------------------------|
                                               (this section is tapped)
F|----------------------------------------------------------------9h10h12----|
C|---------------------------------------------------------9h10h12-----------|
G|--------------------------------------------------8h10h12------------------|
C|-8-8-888-8-8-8---------------0-0-000-0-0-0-8h10h12-------------------------|
A|---------------6-6-666-6-6-6-----------------------------------------------|

F|--------------------------------------------5------------|
C|----------------------------------------------7----------|
G|------------------------------------------------5-7-8-5--|
C|-8-8-888-8-8-8---------------0-0-000-0-0-0---------------|
A|---------------6-6-666-6-6-6-----------------------------|

Outro:

F|--------------------------------------------------|
C|--------------------------------------------------|
G|--------------------------------------------------|  x2
C|-0-0--0-0--0-0--0-0--0-0--0-0--0-0--0-0-----------|
A|--------------------------------------------------|
Добавлено: 20.10.2013
Другие материалы по этой песне:
  • Аккорды и текст

Страница создана 20.10.2013
http://primanota.ru/seldon/cry-wolf-chords.htm
Привет, Гость.
Предлагаем пройти революционный курс по гитаре.
Подарок от PrimaNota.Ru, забирай!