PrimaNota.ru - самый крупный в мире бесплатный архив песенных текстов, аккордов, табулатур и нот


Selah Sue - Summertime - таба, видео

Регистрация Запомнить меня
Войти через:  Facebook Google Twitter Vk Yandex Mail.ru

Selah Sue - Summertime - таба, видео

Печатать
Просмотров: 79
Авторы музыки: Sanne Putseys
Авторы текста: Sanne Putseys
Selah Sue - Summertime (from 'Selah Sue' album, 2011)

Tuning : Standard





Intro

e|---------------------------------------------------------------------|
B|---------------------------------------------------------------------|
G|----0---------------0------------------------------------------------|
D|--------2~--------------2~-------------------0---0-----0-----0---0---|
A|--3---3-----------3---3--------------------3---3-----3-----3---3-----|   x2
E|-----------------------------------------0---------2-----3-----------|



Verse :

e|---------------------------------------------------------------------|
B|---------------------------------------------------------------------|
G|----0---------------0------------------------------------------------|
D|--------2~--------------2~-------------------0---0-----0-----0---0---|
A|--3---3-----------3---3--------------------3---3-----3-----3---3-----|   x4
E|-----------------------------------------0---------2-----3-----------|



Chorus :

e|---------------------------------------------------------------------|
B|------3----------3----------3------------3---------------------------|
G|----0----------0---0------0-------0----0-------0---------------------|
D|---------------------------------------------------------------------|
A|--3----------3----------2------2-----2------2------------------------|
E|---------------------------------------------------------------------|

e|---------------------------------------------------------------------|
B|------1------------1------------3------------3-----------------------|
G|----0-------0----0-------0----0-------0----0-------0-----------------|
D|---------------------------------------------------------------------|
A|--0------0-----0------0-----3------3-----3------3--------------------|
E|---------------------------------------------------------------------|

e|-----------------------------------------------0---------------------|
B|------3------------3------------1------------1-----------------------|
G|----0-------0----0-------0----0-------0----0-------------------------|
D|---------------------------------------------------------------------|
A|--2------2-----2------2-----0------0-----0---------------------------|
E|---------------------------------------------------------------------|

e|---------------------------------------------------------------------|
B|------1--------------------------------------------------------------|
G|----0-------0--------------------------------------------------------|
D|---------------------------------------------------------------------|
A|--0------0-----0~----------------------------------------------------|
E|---------------------------------------------------------------------|



Intro

e|---------------------------------------------------------------------|
B|---------------------------------------------------------------------|
G|----0---------------0------------------------------------------------|
D|--------2~--------------2~-------------------0---0-----0-----0---0---|
A|--3---3-----------3---3--------------------3---3-----3-----3---3-----|   x2
E|-----------------------------------------0---------2-----3-----------|



Verse :

e|---------------------------------------------------------------------|
B|---------------------------------------------------------------------|
G|----0---------------0------------------------------------------------|
D|--------2~--------------2~-------------------0---0-----0-----0---0---|
A|--3---3-----------3---3--------------------3---3-----3-----3---3-----|   x4
E|-----------------------------------------0---------2-----3-----------|



Chorus :

e|---------------------------------------------------------------------|
B|------3------------3------------3------------3-----------------------|
G|----0-------0----0-------0----0-------0----0-------0-----------------|
D|---------------------------------------------------------------------|
A|--3------3-----3------3-----2------2-----2------2--------------------|
E|---------------------------------------------------------------------|

e|---------------------------------------------------------------------|
B|------1------------1------------3------------3-----------------------|
G|----0-------0----0-------0----0-------0----0-------0-----------------|
D|---------------------------------------------------------------------|
A|--0------0-----0------0-----3------3-----3------3--------------------|
E|---------------------------------------------------------------------|

e|-----------------------------------------------0---------------------|
B|------3------------3------------1------------1-----------------------|
G|----0-------0----0-------0----0-------0----0-------------------------|
D|---------------------------------------------------------------------|
A|--2------2-----2------2-----0------0-----0---------------------------|
E|---------------------------------------------------------------------|

e|---------------------------------------------------------------------|
B|------1--------------------------------------------------------------|
G|----0-------0--------------------------------------------------------|
D|---------------------------------------------------------------------|
A|--0------0-----0~----------------------------------------------------|
E|---------------------------------------------------------------------|



Outro

e|---------------------------------------------------------------------|
B|---------------------------------------------------------------------|
G|----0---------------0------------------------------------------------|
D|--------2~--------------2~-------------------0---0-----0-----0---0---|
A|--3---3-----------3---3--------------------3---3-----3-----3---3-----|   x4
E|-----------------------------------------0---------2-----3-----------|

e|---------------------------------------------------------------------|
B|---------------------------------------------------------------------|
G|----0---------------0------------------------------------------------|
D|--------2~--------------2~-------------------------------------------|
A|--3---3-----------3---3----------------------------------------------|
E|-----------------------------------------0~--------------------------|













Selah Sue sometimes plays this in live :


Intro :

e|---------------------------------------------------------------------|
B|---------------------------------------------------------------------|
G|----0---------------0------------------------------------------------|
D|--------2~--------------2~--------0--0-------0---0-----0-----0---0---|
A|--3---3-----------3---3---------3---3------3---3-----3-----3---3-----|
E|-----------------------------------------0---------2-----3-----------|



Chorus :

e|---------------------------------------------------------------------|
B|------3-------------3-------------3-------------3--------------------|
G|----0---0----0----0---0----0----0---0----0----0---0----0-------------|
D|------------0-------------0-------------0-------------0--------------|
A|--3--------3----3--------3----2--------2----2--------2---------------|
E|---------------------------------------------------------------------|

e|---------------------------------------------------------------------|
B|------1-------------1h0-------------3-------------3------------------|
G|----0---0----0----0-----0----0----0---0----0----0---0----0-----------|
D|------------0---------------0-------------0-------------0------------|
A|--0--------0----0----------0----3--------3----3--------3-------------|
E|---------------------------------------------------------------------|

e|---------------------------------------------------------------------|
B|------3-------------3-------------1-------------1--------------------|
G|----0---0----0----0---0----0----0---0----0----0---0----0-------------|
D|------------0-------------0-------------0-------------0--------------|
A|--2--------2----2--------2----0--------0----0--------0---------------|
E|---------------------------------------------------------------------|

e|---------------------------------------------------------------------|
B|------1-------------1------------------------------------------------|
G|----0---0----0----0---0----------------------------------------------|
D|------------0--------------------------------------------------------|
A|--0--------0----0--------0~------------------------------------------|
E|---------------------------------------------------------------------|








AF
Добавлено: 16.06.2013
Другие материалы по этой песне:
  • Аккорды и текст

Страница создана 16.06.2013
http://primanota.ru/selah-sue/summertime-chords.htm
Привет, Гость.
Предлагаем пройти революционный курс по гитаре.
Подарок от PrimaNota.Ru, забирай!