PrimaNota.ru - самый крупный в мире бесплатный архив песенных текстов, аккордов, табулатур и нот


Сектор Газа - Liubovi Zagrobnaya - таба, бас-таба, видео

Регистрация Запомнить меня
Войти через:  Facebook Google Twitter Vk Yandex Mail.ru

Сектор Газа - Liubovi Zagrobnaya - таба, бас-таба, видео

Печатать
Просмотров: 479
Artist: Sector_Gaza	
Song: Liubovi_zagrobnaya
Tabs by Vadim Zabrian (creeping_13_death@yahoo.com)


Intro:
     
e |------------------------------------------------------------------------|
b |------------------------------------------------------------------------|
g |------------12--12--12--12-\-10---9---12--12--12--12-\-10---12---14~~~--|
d |-(7)-/-10---------------------------------------------------------------|


e |-----------------------------------------------------------------------|
b |-----------------------------------------------------------------------|
g |-----------12-12-12-12-\-10--9--12-12-12-12-\-10---9--10----(8)-/-9--7-|
d |-(7)-/-10--------------------------------------------------------------|


e |---------------------------------------------------------------|
b |---------------------------------------------------------------|
g |-----------12-12-12-12-\-10--9--12-12-12-12-\-10---12---14~~~--|
d |-(7)-/-10------------------------------------------------------|




e |--------------------------------------------------------------------|
b |--------------------------------------------------------------------|
g |-----------10-10-10-(10)-/-12--10--10--9--9--9--(9)-h-10--9--8--7---|
d |-(7)-/-9------------------------------------------------------------|




e |-------------------------------------------------------------------|
b |-------------------------------------------------------------------|
g |--------------15------------14------------13------------12---------|
d |-----14-h-15-------13-h-14-------12-h-13-------11-h-12------10~----|

	                  Apeati s neterpeniem...


                                               
Riff 1 (clean):                                                               
                                                   
 e |---------0--x--------------0--x--------------0--x--------------0--x--|
 b |---------1--x--------------1--x--------------0--x--------------0--x--|
 g |-------2-2--x------------2-2--x------------0-0--x------------0-0--x--|
 d |------2-----------------2-----------------2-----------------2--------|
 a |-(0)---------------(0)---------------(2)---------------(2)-----------|
 E |---------------------------------------------------------------------|


Chorus(distortion):

d |----------9----------------11------------------8------|
a |----------9----------------11------------------8------|
E |----------7----------------9-------------------6------|
      
          Tela nashi ....
       


d |----------9-----------------------12----------------7-|
a |----------9-----------------------12----------------7-|
E |----------7-----------------------10----------------5-|
    
        Liubovi nasha ...



d |----------9-----------------11---------------8--------|
a |----------9-----------------11---------------8--------|
E |----------7-----------------9----------------6--------|

       Tvoi cherep ....



d |----------9-----------------12-----------------7------|
a |----------9-----------------12-----------------7------|
E |----------7-----------------10-----------------5------|
    
         Ya budu ....






Riff 2 (clean):

d |-2---2---2--|\     |-2---2---2--|\
a |-2---2---2--| >x3  |-3---3---3--| >x3
E |-0---0---0--|/     |-0---0---0--|/





Solo:

e |-------------------------------------| \
b |-----10---13-------(10)-h-12~----10--|  \ x2
g |-9-----------------------------------|  /


e |-------------------------------------|------------------------|
b |-----10---13-------(10)-h-12~----10--|------------------------|
g |-9-----------------------------------|-9---7~~------(5)-\--7--|
d |-------------------------------------|--------------(3)-\--5--|


e |-------------------------------------| \
b |-----10---13-------(10)-h-12~----10--|  \ x2
g |-9-----------------------------------|  /


e |---------------------------------------------------------|
b |----13-12-10--13-12-10--13-12-10--13-12-10--(12)-/-15~~--|
g |-9-------------------------------------------------------|
								       	
								        		 
e |-------------------------------------------------------------|  \  
b |------------14-p-12-11--13-p-11-10--12-p-10-9--11-p-9--9--8--|   \_  
g |-(10)-/-12---------------------------------------------8-----|   / |
  								      | 
			               				      |  
			 I'm realy realy not sure about this part ____|





Riff 3 (distortion):

  g |-------12----12---12-------10------10---|
  d |-------12----12---12-------10------10---|
  a |-------10----10---10-------8-------8----|
  E |----------------------------------------|





             ...and layout for all


     |Intro |Verse 1|Chorus|Verse 2|Chorus|Solo|Verse 3|Chorus|Chorus|
     |---------------------------------------------------------------|
     |    Riff 1    |      |Riff 2 |      |   Riff 2   |      |Intro |
	   				       |Riff 3 | 
     		     ^
    		    /
   		   /
		  /
     
my first song tabed, so if there are too many mistakes, you can ask  to 
replace it, but mail me first.
     
Добавлено: 21.08.2013
Другие материалы по этой песне:
  • Аккорды и текст

Страница создана 10.07.2012
http://primanota.ru/sektor-gaza/liubovi-zagrobnaya-chords.htm
Привет, Гость.
Предлагаем пройти революционный курс по гитаре.
Подарок от PrimaNota.Ru, забирай!