PrimaNota.ru - самый крупный в мире бесплатный архив песенных текстов, аккордов, табулатур и нот


Seinabo Sey - Younger Kygo Remix - аккорды и текст, видео

Регистрация Запомнить меня
Войти через:  Facebook Google Twitter Vk Yandex Mail.ru

Seinabo Sey - Younger Kygo Remix - аккорды и текст, видео

Печатать
Просмотров: 318
Younger Kygo Remix
Seinabo Sey
Hi everyone, I haven't wrote a tab for 2 years, so please leave corrections were needed! 
I still need to get used to this :). 

THIS IS THE REMIX VERSION FT. KYGO.

Alright, when you know the key of the song, it's easier to find out how you play it. 
However, some things are a bit more difficult since some parts aren't played with the guitar. 
I tried to find the right chords that fits best.

Band:    Seinabo Sey(Kygo Remix)
Album:   The Remixes
Song:    Younger


Chords:
    F     Bb     C      Dm     Gm
E|--1--|--x--|--0/x--|--1/5--|--3--|
B|--1--|--3--|--1/5--|--3/6--|--3--|
C|--2--|--3--|--0/5--|--2/7--|--3--|
D|--3--|--3--|--2/5--|--0/7--|--5--|
A|--3--|--1--|--3/3--|--x/5--|--5--|
E|--1--|--x--|--x-x--|--x----|--3--|

Intro:
F  Bb  Dm  C
Bb  Dm  F  Bb

- Verse 1:
          F
There's a conclusion to my illusion
  Bb
I assure you this
           Dm
There's no end to this confusion
       C
If you let it wish
    Bb 
You well
Soul to sell
        Dm                C
Highest bidders, can't you tell what you're getting?
 Bb/D  C  D/F
E|-----------|
B|-----------|
C|-----------|
D|--0--2--3--|
A|--1--3--5--|
E|-----------|




           F
There is a light to all this darkness 
       Bb
I will tell you this
            Dm                             C
There's redemption in you asking them just why it is
                 Bb                        
Some answers are better left unspoken when you know you ain't getting any

- Chorus (2x):
Bb                C
Younger, younger, younger
     Dm     F
Are you?
C                Dm
Younger, younger, younger
    Bb
Are you?
You ain't getting any
Bb                C
Younger, younger, younger
     Dm     F
Are you?
Gm                Dm
Younger, younger, younger
    C
Are you?

Melody after and during the chorus:
    Bb        C     Dm  F            C         Dm      Bb        
E|---------------13-17--17--17-15-13-15--15-13-15-17-13-----
B|--15--15-13-15---------------------------------------15---
G|----------------------------------------------------------
D|----------------------------------------------------------
A|----------------------------------------------------------
E|----------------------------------------------------------

  Bb           Bb        C     Dm  F            Gm        Dm       C
------------13--------------13-17--17--17-15-13-15--15-13-15-17-13-12--12--------13--|
--15--13-15----15--15-13-15------------------------------------------------13-15-----|
-------------------------------------------------------------------------------------|
-------------------------------------------------------------------------------------|
-------------------------------------------------------------------------------------|
-------------------------------------------------------------------------------------|  5x

- Verse 2:
       F
Why we fight to get on loving 
          Bb
I've been wondering
         Dm                                   C
How your mind will leave you hanging your heart lingering
Bb
Stay lost
              Dm            C
Then found by whoever stays around, forgetting
 Bb/D  C  D/F
E|-----------|
B|-----------|
C|-----------|
D|--0--2--3--|
A|--1--3--5--|
E|-----------|

           F                        Bb
There is a way to be yourself, I assure you this
          Dm                                   C
There's a way to catch your dreams without falling asleep
                      Bb
You might as well get it while you can, babe
        Dm                C
'cause you know you ain't getting any


- Chorus (2x):
Bb                C
Younger, younger, younger
     Dm     F
Are you?
C                Dm
Younger, younger, younger
    Bb
Are you?
You ain't getting any
Bb                C
Younger, younger, younger
     Dm     F
Are you?
Gm                Dm
Younger, younger, younger
    C
Are you?                   

    Bb        C     Dm  F            C         Dm      Bb        
E|---------------13-17--17--17-15-13-15--15-13-15-17-13-----
B|--15--15-13-15---------------------------------------15---
G|----------------------------------------------------------
D|----------------------------------------------------------
A|----------------------------------------------------------
E|----------------------------------------------------------

  Bb           Bb        C     Dm  F            Gm        Dm       C
------------13--------------13-17--17--17-15-13-15--15-13-15-17-13-12--12--------13--|
--15--13-15----15--15-13-15------------------------------------------------13-15-----|
-------------------------------------------------------------------------------------|
-------------------------------------------------------------------------------------|
-------------------------------------------------------------------------------------|
-------------------------------------------------------------------------------------|

After the drop:


- Chorus (2x):
Bb                C
Younger, younger, younger
     Dm     F
Are you?
C                Dm
Younger, younger, younger
    Bb
Are you?
You ain't getting any
Bb                C
Younger, younger, younger
     Dm     F
Are you?
Gm                Dm
Younger, younger, younger
    C
Are you?      

    Bb        C     Dm  F            C         Dm      Bb        
E|---------------13-17--17--17-15-13-15--15-13-15-17-13-----
B|--15--15-13-15---------------------------------------15---
G|----------------------------------------------------------
D|----------------------------------------------------------
A|----------------------------------------------------------
E|----------------------------------------------------------

  Bb           Bb        C     Dm  F            Gm        Dm       C
------------13--------------13-17--17--17-15-13-15--15-13-15-17-13-12--12--------13--|
--15--13-15----15--15-13-15------------------------------------------------13-15-----|
-------------------------------------------------------------------------------------|
-------------------------------------------------------------------------------------|
-------------------------------------------------------------------------------------|
-------------------------------------------------------------------------------------|   4x

Outro:
Bb    C    Dm    F
C     Dm   Bb
Bb    C    Dm    F
Gm    Dm   C
Добавлено: 01.05.2015
Вам также может быть интересно:
Другие материалы по этой песне:
  • Аккорды и текст

Страница создана 01.05.2015
http://primanota.ru/seinabo-sey/younger-kygo-remix-chords.htm
Привет, Гость.
Предлагаем пройти революционный курс по гитаре.
Подарок от PrimaNota.Ru, забирай!