PrimaNota.ru - самый крупный в мире бесплатный архив песенных текстов, аккордов, табулатур и нот


Segatron - Pinoy Rock Medley - таба, видео

Регистрация Запомнить меня
Войти через:  Facebook Google Twitter Vk Yandex Mail.ru

Segatron - Pinoy Rock Medley - таба, видео

Печатать
Просмотров: 58
narda
CHORDS : D. Bm. G. A
E -----0--0-----0--0------0---3-------0---3-|
B ---3--3--3--3--3--3--3---3----3--3---3--3-|
D --0-0--0----------------------------------|
G ------------------------------------------|
A -----------2-2--2---------------0-0---0---|
E --------------------3-3---3---------------|

E ------------------ 3x --------| 5x
B ------------------    --------|
G 99977-99977-97-7--    ----97--|
D -----7-----7--7---    ------7-|
A ------------------    --------|
E ------------------    --------|


E --------------------------------- 3x -----------| 5x
B -10-10-10-77--10-10-10-77--10-7-7    -----------|
G ------------9------------9-----9-    -----10-7--|
D ---------------------------------    ---------9-|
A ---------------------------------    -----------|
E ---------------------------------    -----------|

urbandub

E --------------------------------------------------------------|
B --------------------------------------------------------------|
G --------------------------------7---7-------7---7-------------|
D --5--7---7----7-5--7---7---7-9---57--57-99---57--57--7-5------|
A --5---79--79--7-5---79--79-7-9----------99-----------7-5------|
E --3-----------5-3----------5-7----------77-----------5-3------|

CHORDS : G. D


G .G .D .G .D .G

E --------------------------------------5-7-----------5-7-----| 2x
B -----------------------------7-5-7-5-----7--7-5-7-5-----7---|
G -7-6-----7-6---7-6-----7-6----------------------------------|
D -----7-4-----7-----7-4-----7--------------------------------|
A ------------------------------------------------------------|
E ------------------------------------------------------------|



sandwich
CHORDS ; D 4x

E -------- 4x ---10-10------------| 4x
B --------    --------10-10-12-12-|
G -77-----    --------------------|
D ---5599-    --------------------|
A --------    --------------------|
E --------    --------------------|

D , F#m , G 2x

ADLIB: D , F#m , G , A , Bm , G



MOONSTAR8
CHORDS : D , F#m , Bm , G 2x


Kitchie nadal
CHORDS : D , F#m , G . G . 2X


E --------------- 3x ---------|
B ---------------    ---------|
G --796----------    -796-----|
D -----7---------    -----78--|
A ------5-7-5-7--    ---------|
E ---------------    ---------|

adlib

D . Bm . G . D


imago
chords : C . Am . F . C 2x
E ------------------------------------------------------------|
B --13-15-12---13-12------------------------------------------|
G ----------12------12---14-12-14-10-9-9h10-9-----------------|
D ---------------------10--------------------10---------------|
A ------------------------------------------------------------|
E ------------------------------------------------------------|

E --------------------------------------|
B -13-15-12--13-12----------------------|
G ---------12-----12----14-12-14-16-12--|
D -------------------10-----------------|
A --------------------------------------|
E --------------------------------------|

6cycleminds,
c Em , Am F



spongecola
chords ; C Bm . D . F 2x
Guitar 1
E ---------------------------------------------15-13-12----------------12----|
B -13-13-13-12-13-13-12-13-13-13-12-12-13------------------15-13--13-13-15---|
G ------------------------------------12-12-12-------------------------------|
D ---------------------------------------------------------------------------|
A ---------------------------------------------------------------------------|
E ---------------------------------------------------------------------------|

Guitar 2 ;
E --------------------------------------|
B -17-17-17-15-15-17-17-15-15-17--------|
G --------------------------------------|
D --------------------------------------|
A --------------------------------------|
E --------------------------------------|

CHICOSCI

Am F C. G 2x


typecast
C . G . Am F . 2x

E -------------------------------------------------------------------|
B -------------------------------------------------------------------|
G -----------------7-------------------------------7-----------------|
D -------------5h7-----------------------------5h7---------5-4-2-4-5-|
A --542445-5h7-------542445--------542445--5h7-------5424--5-4-2-4-5-|
E --------------------------32020--------------------------3-2-0-2-3-|


adlib ; D ~



parokya

chords : D . G . Bm . A 2x
E -----------14-15-14----14-------14-15-17-15-14-15-----------------------|
B -15--15-17----------17----15------------------------15s17-15-14-15------|
G ---14------------------------14------------------14---------------------|
D ------------------------------------------------------------------------|
A ------------------------------------------------------------------------|
E ------------------------------------------------------------------------|

E -------------14-15-14----14--------------------------|
B -------15-17----------17----15----15s17-14-15--------|
G -14-16-------------------------14--------------------|
D -----------------------------------------------------|
A -----------------------------------------------------|
E -----------------------------------------------------|
Добавлено: 20.11.2013
Другие материалы по этой песне:
  • Аккорды и текст

Страница создана 20.11.2013
http://primanota.ru/segatron/pinoy-rock-medley-chords.htm
Привет, Гость.
Предлагаем пройти революционный курс по гитаре.
Подарок от PrimaNota.Ru, забирай!