PrimaNota.ru - самый крупный в мире бесплатный архив песенных текстов, аккордов, табулатур и нот


Seether - Untitled Instrumental - таба, видео

Регистрация Запомнить меня
Войти через:  Facebook Google Twitter Vk Yandex Mail.ru

Seether - Untitled Instrumental - таба, видео

Печатать
Просмотров: 224
-------------------------------------------------------------------------------
                             UNTITLED (INSTRUMENTAL) - Seether
-------------------------------------------------------------------------------
Tabbed by:josethejalapeno
Email:nice-beard@hotmail.com

Tuning:Drop D then down another half-step

I wasn't able to tab out the intro. 
Pretty easy song. This is my first tab so email me and give me feedback on what is wrong/right.
Enjoy.

Riff:

G#|--------------------------------------------------------------|
A#|--------------------------------------------------------------|
F#|------7\8/7-----------8888777---------------------------------|X3
C#|-0----x-x-x---x-x-x---6666555---------------------------------|
G#|-0----5\6/5---x-x-x---6666555---------------------------------|
C#|-0------------x-x-x---6666555---------------------------------|

G#|----------------------------------------------------------------------|
A#|----------------------------------------------------------------------|
F#|------7\9\10\12\14/12/10/9--10/9--------------------------------------|X1
C#|-0----x-x-x--x--x--x--x--x--x--x--------------------------------------|
G#|-0----5\7\8\-10\12/10/8/-7--8/-7--------------------------------------|
C#|-0--------------------------------------------------------------------|

Verse:


G#|------------------------------------------------------------------------|
A#|------------------------------------------------------------------------|
F#|------------------------------------------------------------------------|
C#|-0~~~~~~~~~~0 1--0~~~~~~~~~~~-------------------------------------------|
G#|-0~~~~~~~~~~0-1--0~~~~~~~~~~~-------------------------------------------|
C#|-0~~~~~~~~~~0-1--0~~~~~~~~~~~-------------------------------------------|

Bridge:


G#|------------------------------------------------------------------------|
A#|------------------------------------------------------------------------|
F#|------------------------------------------------------------------------|
C#|-xx--xx---xxx-x-1-------------------------------------------------------|X18 on 5th and
G#|-xx--xx---xxx-x-1-------------------------------------------------------| 10th time of 
C#|-xx--xx---xxx-x-1-------------------------------------------------------|bridge play below

Bridge (5th and 10th)

G#|------------------------------------------------------------------------|
A#|------------------------------------------------------------------------|
F#|------------------------------------------------------------------------|
C#|-xx--xx---xxx-x10-------------------------------------------------------|
G#|-xx--xx---xxx-x10-------------------------------------------------------|
C#|-xx--xx---xxx-x10-------------------------------------------------------|

Order:

Intro
Verse
Riff
Intro
Verse X4
Bridge




************************************

| /   slide up
| \   slide down
| h   hammer-on
| p   pull-off
| ~   vibrato
| +   harmonic
| x   Mute note
| b   Bend
| pb  Pre-bend
| br  Bend release
| pbr Pre-bend release
| brb Bend release bend

************************************
Добавлено: 25.06.2012
Другие материалы по этой песне:
  • Аккорды и текст

Страница создана 25.06.2012
http://primanota.ru/seether/untitled-instrumental-chords.htm
Привет, Гость.
Предлагаем пройти революционный курс по гитаре.
Подарок от PrimaNota.Ru, забирай!