PrimaNota.ru - самый крупный в мире бесплатный архив песенных текстов, аккордов, табулатур и нот


Seether - Immortailty - таба, видео

Регистрация Запомнить меня
Войти через:  Facebook Google Twitter Vk Yandex Mail.ru

Seether - Immortailty - таба, видео

Печатать
Просмотров: 82
-------------------------------------------------------------------------------
			     IMMORTALITY - SEETHER
-------------------------------------------------------------------------------
Tabbed by:A.REED
Email:reed_911@msn.com

Tuning:Eb Ab Db Gb Bb Eb

INTRO                                  MY FIRST TAB..HOPE YOU LIKE 

eb|----------------------0--------------------------0-------------------------|
Bb|---------3P1----------0------------3P1------------0----------3P1-----------|
Gb|-------0----0---------------------0-----0-----------0-------0---0----------|
Db|-----2---------2---2-----2-----2----------2--2--------2---2----------------|
Ab|---3-----------2---2----2----3------------2--2----------3------------------|
Eb|---------------0---0----------------------0--0-----------------------------|

eb|---------0-----------------------------------------------------------------|
Bb|---------0------------3P1--------------------------------------------------|
Gb|--------------------0------------------------------------------------------|
Db|--2--2-------2----2--------2-----------------------------------------------|
Ab|--2--2-----2----3----------2-----------------------------------------------|
Eb|--0--0---------------------0-----------------------------------------------|

VERSE   * JUST STRUM THIS PART *   *REPEAT 8 TIMES*

eb|----0---0------0-2222---0--0-----0-2222---0--0-----0-2222---0--0------0--2222--|
Bb|----0---0--3P0-0-3333---0--0-3P0-0-3333---0--0-3P0-0-3333---0--0-3P0--0--3333--|
Gb|----0---0------0-2222---0--0-----0-2222---0--0-----0-2222---0--0------0--2222--|
Db|--2---2----2----------2--2---2----------2--2---2-----------2--2--2-------------|
Ab|--2---2----2----------2--2---2----------2--2---2-----------2--2--2-------------|
Eb|--0---0----0----------0--0---0----------0--0---0-----------0--0--0-------------|

   PAT PLAYS AT THE END OF EACH VERSE
eb|-5555----------------------------------------------------------------------|
Bb|-3333----------------------------------------------------------------------|
Gb|-3333----------------------------------------------------------------------|
Db|---------------------------------------------------------------------------|
Ab|---------------------------------------------------------------------------|
Eb|---------------------------------------------------------------------------|

INTERLUDE BEFORE SOLO

eb|--------------------0------------------------0-------------------2---------|
Bb|--1-1-1-1----------0--------1111------------0--------1-1-1-1-----3---------|
Gb|--0-0-0-0---------0---------0000-----------0---------0-0-0-0-----2---------|
Db|--2-2-2-2-2------2----2-2---2222--2-------2----2-2---2-2-2-2-2-------------|
Ab|--3-3-3-3-2-----2-----2-2---3333--2------2-----2-2---3-3-3-3-2-------------|
Eb|----------0--0-0------0-0---------0--0--0------0-0-----------0-------------|

eb|--3P2----3P2----3P2----2-2P0--0-0-0-0--------------------------------------|
Bb|--3------3------3------3-3----3-3-0-0--------------------------------------|
Gb|--2------2------2------2-2----2-2-2-0--------------------------------------|
Db|------------------------------0-0-0-0--------------------------------------|
Ab|---------------------------------------------------------------------------|
Eb|---------------------------------------------------------------------------|

1ST SOLO

eb|---------------------------------------------------------------------------|
Bb|---------------------------------------------------------------------------|
Gb|--14b--12~~---12/-12\--12-12-12~~---------12---12h14p12--------------------|
Db|-----------------------------------12--14---14----------14-----------------|
Ab|---------------------------------------------------------------------------|
Eb|---------------------------------------------------------------------------|

eb|--------------------------------------------------------------13h15p13-----|
Bb|--------------15------------------------15b--15-15~~---13--15-----------15~|
Gb|--12--14b--14---14--12~~------12-14-16--15b--15----------------------------|
Db|---------------------------------------------------------------------------|
Ab|---------------------------------------------------------------------------|
Eb|---------------------------------------------------------------------------|
               | HOLD BEND...|
eb|---------------------------------------------------------------------------|
Bb|--15-13-----15--15-15-15-15------------------------------------------------|
Gb|--------15--14b-14-14-14-14---14b-14b---12h14p12----12---------------------|
Db|-------------------------------------------------14----14~~----------------|
Ab|---------------------------------------------------------------------------|
Eb|---------------------------------------------------------------------------|

2ND SOLO

eb|---------------------------------0000\0--000000--000--000---00000000000----|
Bb|---------------------------------3333\5--5558p5--555--555---5h8p5h8b8p5----|
Gb|--2h3p0------------2h3p0--0------------------------------------------------|
Db|--------2~~--------------2-2-----------------------------------------------|
Ab|---------------------------------------------------------------------------|
Eb|------------333~-------------33--------------------------------------------|

eb|---------------------------------------------------------------------------|
Bb|-88---8\-------------------------------------------------------------------|
Gb|-77---7\-----------14-14--12-12--14--12\----14-14-14-14-14-14--12-12\------|
Db|-------------------14-14--12-12--14--12\----14-14-14-14-14-14--12-12\------|
Ab|---------------------------------------------------------------------------|
Eb|-----------xxx3\-------------------------xx--------------------------------|

eb|----------------------------------------------12-12------------------------|
Bb|-------------------------------------------12------12-----12---------------|
Gb|-12-14-12------12--12---12-14~~---12-14-14------------14b---14-12----12--14|
Db|----------14~~---14--14-------------------------------------------14-------|
Ab|---------------------------------------------------------------------------|
Eb|---------------------------------------------------------------------------|

eb|---------------------------------------------------------------------------|
Bb|---------------------------------------------------------------------------|
Gb|-12h14p12----12---------2h3p0---0------12-12-----12-14-14b-12--------------|
Db|----------14----14~~-----------2-2------------14---------------------------|
Ab|---------------------------------------------------------------------------|
Eb|---------------------------------------------------------------------------|

eb|-------------------------------0000\0--000--0--000--000--0--0--0-----------|
Bb|-------------------------------3333\5--555--7--777--888--10-10-10----------|
Gb|--2h3p0---0----12-12---12--------------------------------------------------|
Db|---------2-2---------14--14------------------------------------------------|
Ab|---------------------------------------------------------------------------|
Eb|---------------------------------------------------------------------------|


eb|-0--0--0---0--0--0-----17--------------0--0--------------------------------|
Bb|-12-12-12--14-14-14--------------------0--0--------------------------------|
Gb|---------------------------------------0--0--------------------------------|
Db|------------------------------------7-----7--------------------------------|
Ab|------------------------------------7-----7--------------------------------|
Eb|------------------------------------5-----5--------------------------------|


SORRY NO OUTRO!!


************************************

| /   slide up
| \   slide down
| h   hammer-on
| p   pull-off
| ~   vibrato
| +   harmonic
| x   Mute note
| b   Bend
| pb  Pre-bend
| br  Bend release
| pbr Pre-bend release
| brb Bend release bend
Добавлено: 20.06.2013
Другие материалы по этой песне:
  • Аккорды и текст

Страница создана 20.06.2013
http://primanota.ru/seether/immortailty-chords.htm
Привет, Гость.
Предлагаем пройти революционный курс по гитаре.
Подарок от PrimaNota.Ru, забирай!