PrimaNota.ru - самый крупный в мире бесплатный архив песенных текстов, аккордов, табулатур и нот


Seeking Homer - Mountain Top - таба, видео

Регистрация Запомнить меня
Войти через:  Facebook Google Twitter Vk Yandex Mail.ru

Seeking Homer - Mountain Top - таба, видео

Печатать
Просмотров: 83
"Mountain Top" by Seeking Homer
(written by Seda, Dunlop, Connors and Oberacker)
Published 1998 on Dirty Boot Music
Album available at www.seekinghomer.com

>From the album "A Good Hard Smack"

Here's the tab for the intro...

x------------------------------------------------
x------------------------------------------------
0------0-----0-----0-----0---0---0-----0-----0---
0--12-12-12-12-10-10-10-10-9-9-9-9-10-10-10-10---
x------------------------------------------------
x------------------------------------------------

repeat....

The Mountain Top Signature riff is...

0------------------------------------------------
0-------12-13-12-13-12---------12-13-12-13-12----
0-12-14---------------14-12-14-------------------
0------------------------------------------------
0------------------------------------------------
0------------------------------------------------

then
0-------------------15-15-14-14-12-15------------
0-15-13-12-15-13-12------------------------------
0------------------------------------------------
0------------------------------------------------
0------------------------------------------------
0------------------------------------------------

Verses are just a simple G - C - D progression

(Chorus #1)
[Am]"Knife to chest..." [D][G]
[C][C][AM][D]

[G]"I wouldn't run..." [C][D]
[G] [C][D]

(Chorus #2)

Play the guitar riff until the end...



     
Добавлено: 04.07.2013
Другие материалы по этой песне:
  • Аккорды и текст

Страница создана 04.07.2013
http://primanota.ru/seeking-homer/mountain-top-chords.htm
Привет, Гость.
Предлагаем пройти революционный курс по гитаре.
Подарок от PrimaNota.Ru, забирай!