PrimaNota.ru - самый крупный в мире бесплатный архив песенных текстов, аккордов, табулатур и нот


Seeking Homer - Kicking The Ducks - аккорды и текст, видео

Регистрация Запомнить меня
Войти через:  Facebook Google Twitter Vk Yandex Mail.ru

Seeking Homer - Kicking The Ducks - аккорды и текст, видео

Печатать
Просмотров: 82
Kicking The Ducks
Seeking Homer
"Kicking the Ducks"
(written by Seda/Dunlop/Connors/Oberacker)
Performed & Recorded by Seeking Homer
Published 1997

>From the Album "Streets" available at www.seekinghomer.com

Most of the song is just a variation of the E chord
Intro...(hard strummin')

e-0-0-0-0---0-0-0-0---0-0-0-0---0-0-0-0--------
B-0-0-0-0---0-0-0-0---0-0-0-0---x-x-x-x--------
G-9-9-9-9---8-8-8-8---6-6-6-6---6-6-6-6--------
D-9-9-9-9---9-9-9-9---7-7-7-7---7-7-7-7--------
A-7-7-7-7---7-7-7-7---7-7-7-7---x-x-x-x--------
E-0-0-0-0---0-0-0-0---0-0-0-0---7-7-7-7--------

(repeat and play into the verse)
"In a gray van with tales to tell.....

(For the pre-chorus & harmonica solo)
"We threw the pucks in the ocean...
C#minor/// A/// C#minor/// A/// C#minor/// B////

Chorus
"Kicking the ducks....always we were
e-0-0-0-0---0-0-0-0---0-0-0-0---0-0-0-0--------
B-0-0-0-0---0-0-0-0---0-0-0-0---0-0-0-0--------
G-9-9-9-9---8-8-8-8---8-8-8-8---8-8-8-8--------
D-9-9-9-9---9-9-9-9---9-9-9-9---9-9-9-9--------
A-7-7-7-7---7-7-7-7---x-x-x-x---x-x-x-x--------
E-0-0-0-0---0-0-0-0---7-7-7-7---7-7-7-7--------

"kicking the ducks....quack, quack, quack
e-0-0-0-0--0-0-0-0--0-0-0-0---0-0-0-0---
B-0-0-0-0--0-0-0-0--0-0-0-0---0-0-0-0---
G-9-9-9-9--9-9-9-9--6-6-6-6---8-8-8-8---
D-9-9-9-9--9-9-9-9--7-7-7-7---9-9-9-9---
A-x-x-x-x--x-x-x-x--7-7-7-7---9-9-9-9---
E-9-9-9-9--9-9-9-9--5-5-5-5---7-7-7-7---

and back to the verse....

and so on...

Seeking Homer
Dirty Boot Music LLC
(856)786-7686
     
Добавлено: 13.06.2013
Другие материалы по этой песне:
  • Аккорды и текст

Страница создана 13.06.2013
http://primanota.ru/seeking-homer/kicking-the-ducks-chords.htm
Привет, Гость.
Предлагаем пройти революционный курс по гитаре.
Подарок от PrimaNota.Ru, забирай!