PrimaNota.ru - самый крупный в мире бесплатный архив песенных текстов, аккордов, табулатур и нот


Seeds Of Discord - I Await - бас-таба, видео

Регистрация Запомнить меня
Войти через:  Facebook Google Twitter Vk Yandex Mail.ru

Seeds Of Discord - I Await - бас-таба, видео

Печатать
Просмотров: 113
Seeds of Discord
I Await
from the CD Pools of Mercury


b.p.m. 100


intro

  “I await           you         in hell.

G|--------------------------------------------------|
D|------------------------------------------3-0-----|
A|----------------------------------------2---------|
D|-0-<-(0)--------------------------0-2-3-------3-0-|
    volume swell

verse x4

G|-----------------------------|---------------------------|
D|*-----7---5-(5)------3-------|-----7---5---------3-0----*|
A|*---5---5------0-2-3---3-----|---5---5---------2--------*|
D|-(0)---------------------3-0-|(0)--------0-2-3-------3-0-|


chorus              1.___________________ 2.___________________

G|------------------|--------------------|-------------------|
D|*---2-----2-------|-----2-----2-------*|-----2-----2-2-(2)-|
A|*-----------X-1-1-|-------------X-3-2-*|-------------3-(3)-|
D|--0---0-0---------|-0-0---0-0----------|-0-0---0-0---------|


verse x4

G|-----------------------------|---------------------------|
D|*-----7---5-(5)------3-------|-----7---5---------3-0----*|
A|*---5---5------0-2-3---3-----|---5---5---------2--------*|
D|-(0)---------------------3-0-|(0)--------0-2-3-------3-0-|


chorus              1.___________________ 2.__________________

G|------------------|--------------------|-------------------|
D|*---2-----2-------|-----2-----2-------*|-----2-----2-2-(2)-|
A|*-----------X-1-1-|-------------X-3-2-*|-------------3-(3)-|
D|--0---0-0---------|-0-0---0-0----------|-0-0---0-0---------|


interlude

G|----2------------2--------|---2--------------|
D|------3----3-------3------|-----3----3-(3)---|
A|---------2------------2-3-|--------2---------|
D|--0--(0)-----0-0----------|-0----------------|
                 *1st x only


G|-----------------------------------------------|
D|-----------------------------------------------|
A|----------------------------------------1-(1)--|
D|-0-0-R-----0-0-R------0-0-R--------------------| to verse


verse

chorus

interlude

(2nd time)
G|--------------------------------------------------|
D|*------------------------------------------------*|
A|*------------------------------------------1-(1)-*|
D|-0-0-R------0-0-R-----0-0-R-----2-3-5-3-2---------|

outro

G|--------------------------------------------------|
D|*------------------------------------------------*|
A|*----5----------5---------5----------------1-(1)-*|
D|-0-0---0----0-0---0---0-0---0---2-3-5-3-2---------|


G|------------------------------------------------------------|
D|------------------------------------------------------------|
A|-----5----------5---------5----------------1-(1)------------|
D|-0-0---0----0-0---0---0-0---0-R-2-3-5-3-2-R------1-(1)----0-|

tabbed by Geoff McLeod
god_of_discord@hotmail.com
Authorized bass tabs.

Добавлено: 27.03.2012
Вам также может быть интересно:
Другие материалы по этой песне:
  • Аккорды и текст

Страница создана 27.03.2012
http://primanota.ru/seeds-of-discord/i-await-chords.htm
Привет, Гость.
Предлагаем пройти революционный курс по гитаре.
Подарок от PrimaNota.Ru, забирай!