PrimaNota.ru - самый крупный в мире бесплатный архив песенных текстов, аккордов, табулатур и нот


Secrets - The Oath - текст песни, таба, видео

Регистрация Запомнить меня
Войти через:  Facebook Google Twitter Vk Yandex Mail.ru

Secrets - The Oath - текст песни, таба, видео

Печатать
Просмотров: 100
I just want to note, this isn't my own tab, this is a tab I typed from a Guitar Pro tab. 
I am not taking credit for someone else's work.

Intro

C#|--------------|-----------------|--------------|-----------------|
G#|--------------|-----------------|--------------|-----------------|
E |--------------|-----------------|--------------|-----------------|
B |--------------|-----------7-----|--------------|-----------------|
F#|-0-0-0---0--0-|--0-0-0--0---8-7-|-0-0-0---0--0-|--0-0-0--0-0-0-0-|
B |-0-0-0---0--0-|--0-0-0--0-------|-0-0-0---0--0-|--0-0-0--0-0-0-0-|
    * * *   *  *    * * *  *         * * *   *  *    * * *  * * * *
C#|--------------|-----------------|--------------|-----------------|
G#|--------------|-----------------|--------------|-----------------|
E |--------------|-----------------|--------------|-----------------|
B |--------------|-----------7-----|--------------|-----------------|
F#|-0-0-0---0--0-|--0-0-0--0---8-7-|-0-0-0---0--0-|--0-0-0--0-0-0-0-|
B |-0-0-0---0--0-|--0-0-0--0-------|-0-0-0---0--0-|--0-0-0--0-0-0-0-|
    * * *   *  *    * * *  *         * * *   *  *    * * *  * * * *

Bridge

C#|-------|-------------------------|
G#|-------|-------------------------|
E |-7~~~~-|-9~~~--------------------|
B |--~~~~-|--~~~-12-11-10-9-8-7-6-5-|
F#|-5~~~~-|-7~~~-12-11-10-9-8-7-6-5-|
B |-------|------12-11-10-9-8-7-6-5-|


Verse 1

C#|---------------|---------------|-------------|---------------------|
G#|---------------|---------------|-------------|---------------------|
E |---------------|---------------|-------------|---------------------|
B |---------------|---------------|-------------|---------------------|
F#|---------------|---------------|-------------|---------------------|
B |-0-0-0-0--0--0-|-0-0-0--0-0-0--|-0-0-0--0--0-|-0-12-12-12-12-0-0-0-|

C#|---------------|---------------|-------------|-----------------|
G#|---------------|---------------|-------------|-----------------|
E |---------------|---------------|-------------|-----------------| Play the
B |---------------|---------------|-------------|-----------------| verse twice
F#|---------------|---------------|-------------|-----------------|
B |-0-0-0-0--0--0-|-0-0-0--0-0-0--|-0-0-0--0--0-|-0-8-8-8-8-1-1-1-|


Bridge

C#|-----------------|--------------------|-----------------|
G#|-----------------|--------------------|-----------------|
E |-----------------|--------------------|-----------------| Play the third bar
B |-----------------|--------------------|-----------------| twice
F#|-----------------|--------------------|-0-0-0-0-0-0-0-0-|
B |-5-5-5-5-5-5-5-5-|-8-8-8-12-12-12-8-8-|-0-0-0-0-0-0-0-0-|
                                           * * * *   * * *
C#|-----------------|-----------------|
G#|-----------------|-----------------|
E |-----------------|-----------------|
B |-----------------|-----------------|
F#|-------8-8-8-----|---5-5-5---------|
B |-5-5-5-------5-5-|-5-------7-7-7-7-|


Chorus

C#|-----------------|    C#|-----------------|    C#|-----------------|
G#|-----------------|    G#|-----------------|    G#|-----------------|
E |-----------------|    E |-----------------|    E |-----------------|
B |-8-8-8-8-8-8-8-8-| x2 B |-0-0-0-0-0-0-0-0-| x2 B |-5-5-5-5-5-5-5-5-| x2
F#|-8-8-8-8-8-8-8-8-|    F#|-0-0-0-0-0-0-0-0-|    F#|-5-5-5-5-5-5-5-5-|
B |-8-8-8-8-8-8-8-8-|    B |-0-0-0-0-0-0-0-0-|    B |-5-5-5-5-5-5-5-5-|

C#|-----------------|-----------------|
G#|-----------------|-----------------|
E |-----------------|-----------------|
B |-----------------|-----------------| Play all this
F#|-------8-8-8-----|-------7-7-7-----| twice
B |-8-8-8-------8-8-|-7-7-7-------7-7-|
    * * *       * *   * * *       * *

Verse 2

C#|-----------------------------|-----------------------|
G#|-----------------------------|-----------------------|
E |-----------------------------|-----------------------| Play all this
B |-----------------------------|-----------------7-----| three times
F#|-0-0-0--0-0-0--0-0-0--0-0-0--|-0-0-0--0-0-0--0---8-7-|
B |-0-0-0--0-0-0--0-0-0--0-0-0--|-0-0-0--0-0-0--0-------|
    * * *  * * *  * * *  * * *    * * *  * * *  *
C#|-----------------------------|-----------------|
G#|-----------------------------|-----------------|
E |-----------------------------|-----------------| Play everything twice
B |-----------------------------|-----------------|
F#|-0-0-0--0-0-0--0-0-0--0-0-0--|-0-1-0---3-0-3-5-|
B |-0-0-0--0-0-0--0-0-0--0-0-0--|-0-----0---------|
    * * *  * * *  * * *  * * *    *
C#|---------------|--------------|---------------|--------|
G#|---------------|--------------|---------------|--------|
E |---------------|--------------|---------------|--------|
B |---------------|--------------|---------------|--------|
F#|-0-0-0-0-0-0---|--0-0-0-0-0-0-|-0-0-0-0-0-0---|--------|
B |-0-0-0-0-0-0---|--0-0-0-0-0-0-|-0-0-0-0-0-0---|--------|
    * * * * * *      * * * * * *   * * * * * *
C#|---------------|--------------|---------------|---------------|
G#|---------------|--------------|---------------|---------------|
E |---------------|--------------|---------------|---------------|
B |---------------|--------------|---------------|---------------|
F#|-0-0-0-0-0-0---|--0-0-0-0-0-0-|-0-0-0-0-0-0---|-0-0-0-0-0-----|
B |-0-0-0-0-0-0---|--0-0-0-0-0-0-|-0-0-0-0-0-0---|-0-0-0-0-0-----|
    * * * * * *      * * * * * *   * * * * * *     * * * * *
C#|---------------|--------------|---------------|--------|
G#|---------------|--------------|---------------|--------|
E |---------------|--------------|---------------|--------|
B |---------------|--------------|---------------|--------|
F#|-0-0-0-0-0-0---|--0-0-0-0-0-0-|-0-0-0-0-0-0---|--------|
B |-0-0-0-0-0-0---|--0-0-0-0-0-0-|-0-0-0-0-0-0---|--------|
    * * * * * *      * * * * * *   * * * * * *
C#|---------------|----------------|---------------|---------------|
G#|---------------|----------------|---------------|---------------|
E |---------------|----------------|---------------|---------------|
B |---------------|----------------|---------------|---------------|
F#|-0-0-0-0-0-0---|----0-0-0-0-0-0-|-0-0-0-0-0-0---|-0-0-0-0-0-0-0-|
B |-0-0-0-0-0-0---|----0-0-0-0-0-0-|-0-0-0-0-0-0---|-0-0-0-0-0-0-0-|
    * * * * * *        * * * * * *   * * * * * *     * * * * * *

Chorus

C#|-----------------|    C#|-----------------|    C#|-----------------|
G#|-----------------|    G#|-----------------|    G#|-----------------|
E |-----------------|    E |-----------------|    E |-----------------|
B |-8-8-8-8-8-8-8-8-| x2 B |-0-0-0-0-0-0-0-0-| x2 B |-5-5-5-5-5-5-5-5-| x2
F#|-8-8-8-8-8-8-8-8-|    F#|-0-0-0-0-0-0-0-0-|    F#|-5-5-5-5-5-5-5-5-|
B |-8-8-8-8-8-8-8-8-|    B |-0-0-0-0-0-0-0-0-|    B |-5-5-5-5-5-5-5-5-|

C#|-----------------|-----------------|
G#|-----------------|-----------------|
E |-----------------|-----------------|
B |-----------------|-----------------| Play all this
F#|-------8-8-8-----|-------7-7-7-----| twice
B |-8-8-8-------8-8-|-7-7-7-------7-7-|
    * * *       * *   * * *       * *

Bridge

C#|--------|--------|    C#|--------|----------|-----|
G#|--------|--------|    G#|--------|----------|-----|
E |--------|--------|    E |--------|----------|-----|
B |-0~~~~~-|----0-0-| x3 B |-0~~~~~-|----0--0--|-----|
F#|-0~~~~~-|----0-0-|    F#|-0~~~~~-|----0--0--|-----|
B |-0~~~~~-|----0-0-|    B |-0~~~~~-|----0--0--|-----|
                * *                      *  *

Outro

C#|-------------------------|--------------|
G#|-------------------------|--------------|
E |-------------------------|--------------|
B |-------------------------|--------------| x4
F#|-0-0--0-0--0-0-0-0--0-0--|----0-0--0-0--|
B |-0-0--0-0--0-0-0-0--0-0--|----0-0--0-0--|
    * *  * *  * * * *  * *       * *  * *

Key

*= Palm Mute
~= Let Ring
Добавлено: 22.10.2013
Другие материалы по этой песне:

Страница создана 27.07.2012
http://primanota.ru/secrets/the-oath-chords.htm
Привет, Гость.
Предлагаем пройти революционный курс по гитаре.
Подарок от PrimaNota.Ru, забирай!