PrimaNota.ru - самый крупный в мире бесплатный архив песенных текстов, аккордов, табулатур и нот


Secrets - Live Together Die Alone - таба, видео

Регистрация Запомнить меня
Войти через:  Facebook Google Twitter Vk Yandex Mail.ru

Secrets - Live Together Die Alone - таба, видео

Печатать
Просмотров: 154
Tab made by Fábio Fiúza
 . palm mute
 ~ let it ring
                                    
Intro (0:03-0:15)
                                   
|---------------------------------||-----------------------------------|
|---------------------------------||-----------------------------------|
|---------------------------------||-----------------------------------|
|---------------------------------||-----------------3---3-------------|
|-0----0--0------0----00--0----0--||---1---0--0--------0----0-11111111-|
|-0-00-0--0-0000-0-00-00--0-00-0--||-00-00-0--0-0000--------0----------| 2x
    ..      ....   ..       ..       .. ..


Verse (0:16-0:32)

|---------------------------------||-----------------------------------|
|---------------------------------||-----------------------------------|
|---------------------------------||-----------------------------------|
|---------------------------------||-----------------------------------|
|---------------------------------||-------------11111111--------------|
|-0-00-0--000-000-000--000-000-000||-000-000-000-----------------------|  
  . .. .  ... ... ...  ... ... ...   ... ... ...

|---------------------------------||-----------------------------------|
|---------------------------------||-----------------------------------|
|---------------------------------||-----------------------------------|
|---------------------------------||-----------------------------------|
|-0-00-0--000-000-000--000-000-000||-000-000-000-11111111--------------|
|-0-00-0--000-000-000--000-000-000||-000-000-000-----------3333-5555---|
  . .. .  ... ... ...  ... ... ...   ... ... ...                xxxx    


Chorus (0:33-0:59)

|-------------------------------------------------|
|-------------------------------------------------|
|-------------------------------------------------|
|-------------------------------------------------|
|-88888888-1010101010101010-00000000-33333333-----|
|-88888888-1010101010101010-00000000-33333333-----| 3x

End of the chorus 

|-------------------------------------------------|
|-------------------------------------------------|
|-------------------------------------------------|
|-------------------------------------------------|
|-888888888888888810101010101010101010101010101010|
|-888888888888888810101010101010101010101010101010|

Verse(1:00-1:15)
|-------------------------------------------------|
|-------------------------------------------------|
|-------------------------------------------------|
|-------------------------------------------------|
|------------------------------------11-----------|
|-0-0-00-0-0-00-0-0-0-0-0-0-1-0-00-0----0-10014---| 
      ..     ..   .   .   .     ..         ..

|-------------------------------------------------|
|-------------------------------------------------|
|-------------------------------------------------|
|-------------------------------------------------|
|-------------------------------------------------|
|-0-0-00-0-0-00-0-0-0-0-0-0-1-0-00-0-1-00-10014---| 
      ..     ..   .   .   .     ..         ..

Breakdown 1(1:16-1:29)
|-------------------------------------------------|
|-------------------------------------------------|
|-------------------------------------------------|
|-------------------------------------------------|
|-------------------------------------------------|
|-000--000-000-0-000-000-000-0--------------------| 4x
  ...  ... ... . ... ... ... .

(Chorus)

Outro (1:56-2:17)

|-------------------------------------------------|
|-------------------------------------------------|
|-------9-10--------------------------------------|
|-8--5--X-X---------------------------------------|
|-8--5--7-8---------------------------------------|
|-8--5-------000-0-000-000-0000-0000-0-000--------| 2X Then repeat the 0's
             ... . ... ... .... .... . ...

Breakdown 2(2:17-2:48)
|-------------------------------------------------|
|-------------------------------------------------|
|-------------------------------------------------|1st chord is only played 
|-------------------------------------------------|on the 1st time
|-0~--0--00000--0---------------------------------|
|-0~--0--00000--0- 00000-000-0--------------------| 4x 
      .  .....  .  ..... ... .

(Chorus)
Добавлено: 20.11.2013
Другие материалы по этой песне:
  • Аккорды и текст

Страница создана 20.11.2013
http://primanota.ru/secrets/live-together-die-alone-chords.htm
Привет, Гость.
Предлагаем пройти революционный курс по гитаре.
Подарок от PrimaNota.Ru, забирай!