PrimaNota.ru - самый крупный в мире бесплатный архив песенных текстов, аккордов, табулатур и нот


Secrets - Infinite Escape - таба, видео

Регистрация Запомнить меня
Войти через:  Facebook Google Twitter Vk Yandex Mail.ru

Secrets - Infinite Escape - таба, видео

Печатать
Просмотров: 45
SECRETS - Infinite Escape | Tuning - Drop C

This is a LEAD guitar tab for Infinite Escape by SECRETS. If you find mistakes please correct me. 
Scroll down for RHYTM guitar tab

Verse - 2x
D|-------------------|--------------------|------------------|-----------------------|
A|-------------------|--------------------|------------------|-----------------------|
F|-------------------|--------------------|------------------|-----------------------|
C|-------------------|--------------------|------------------|-----------------------|
G|-8-5---------------|--------------------|-5-4--------------|----------1-0----------|
C|-----0-8--7-0--3-0-|-0-0--0-0--8-0--7-3-|-----0-8--7-0--3-0|-0-0--0-0-----0--5-3-0-|

Bridge -
D|-----------------|-----------------|-----------------|-------|
A|-----------------|-----------------|-----------------|-------|
F|-----------------|-----------------|-----------------|-------|
C|-----------------|-----------------|-----------------|-------|
G|-1-0---1-0---1-0-|-1-0----0---0----|-1-0---1-0---1-0-|--1-0--|
C|-1-0---1-0---1-0-|-1-0----0---0----|-1-0---1-0---1-0-|--1-0--|

Chorus - 
D|-----------------|---------------------------|--------------------------|----------------------|
A|-6-6-6-6-6-6-6/8-|--10-10-10-10-10-10--13-13-|--10-10-10-10-10-10-10-10-|--8-8-8-8-8--10-10-10-|
F|-x-x-x-x-x-x-x/x-|---x--x--x--x--x--x---x--x-|---x--x--x--x--x--x--x--x-|--x-x-x-x-x---x--x--x-|
C|-4-4-4-4-4-4-4/6-|---8--8--8--8--8--8--11-11-|---8--8--8--8--8--8--8--8-|--6-6-6-6-6---8--8--8-|
G|-----------------|---------------------------|--------------------------|----------------------|
C|-----------------|---------------------------|--------------------------| ---------------------|

D|-----------------|---------------------------|--------------------------|--------------------------|
A|-6-6-6-6-6-6-6/8-|--10-10-10-10-10-10--13-13-|--10-10-10-10-10-10-10-10-|--10-10-10-10-10-10-10-10-|
F|-x-x-x-x-x-x-x/x-|---x--x--x--x--x--x---x--x-|---x--x--x--x--x--x--x--x-|---x--x--x--x--x--x--x--x-|
C|-4-4-4-4-4-4-4/6-|---8--8--8--8--8--8--11-11-|---8--8--8--8--8--8--8--8-|---8--8--8--8--8--8--8--8-|
G|-----------------|---------------------------|--------------------------|--------------------------|
C|-----------------|---------------------------|--------------------------|--------------------------|

D|-----------------|---------------------------|--------------------------|----------------------|
A|-6-6-6-6-6-6-6/8-|--10-10-10-10-10-10--13-13-|--10-10-10-10-10-10-10-10-|--8-8-8-8-8--10-10-10-|
F|-x-x-x-x-x-x-x/x-|---x--x--x--x--x--x---x--x-|---x--x--x--x--x--x--x--x-|--x-x-x-x-x---x--x--x-|
C|-4-4-4-4-4-4-4/6-|---8--8--8--8--8--8--11-11-|---8--8--8--8--8--8--8--8-|--6-6-6-6-6---8--8--8-|
G|-----------------|---------------------------|--------------------------|----------------------|
C|-----------------|---------------------------|--------------------------|----------------------|

D|-----------------|----------------------|--------------------------|--------------------------|
A|-6-6-6-6-6-6-6/8-|-10-10-10-10--8-8-8-8-|--10-10-10-10-10-10-10-10-|--10-10-10-10-10-10-10-10-|
F|-x-x-x-x-x-x-x/x-|--x--x--x--x--x-x-x-x-|---x--x--x--x--x--x--x--x-|---x--x--x--x--x--x--x--x-|
C|-4-4-4-4-4-4-4/6-|--8--8--8--8--6-6-6-6-|---8--8--8--8--8--8--8--8-|---8--8--8--8--8--8--8--8-|
G|-----------------|----------------------|--------------------------|--------------------------|
C|-----------------|----------------------|--------------------------|--------------------------|

Repeat Verse | Repeat Bridge 2x | Repeat Chorus 

Bridge 2 Pt 1 - Whole thing 4x                                            Cont. Pt 2 - Whole thing 4x
D|----------------------------------|--------------------------------|    |--------------|-------------|
A|----------------------------------|--------------------------------|    |--10~---------|-------------|
F|----------------------------------|--------------------------------|    |------7~--9~--|--10--9~--7~-|
C|----------------------------------|--------------------------------|    |-------------|--------------|
G|-5-5-5-5-5-5-5-5---1-1-1-1-1--4-4-|-4-4-4-4-4-4-4-4-4-4-4-4-4-4-4--|    |-------------|--------------|
C|----------------------------------|--------------------------------|    |-------------|--------------|

Breakdown - Whole thing 2x
*Note: sorry, you're going to have to work out the patterns yourself. Just to difficult to write out
D|-----------------------|-----------------------|
A|-----------------------|-----------------------|
F|-----------------------|-----------------------|
C|-----------------------|-----------------------|
G|-0---0---0-----0--0--0-|----0----0--1--1--1--1-|
C|-0---0---0-----0--0--0-|----0----0--0--0--0--0-|

D|-----------------------|----------------------------|
A|-----------------------|----------------------------|
F|-----------------------|----------------------------|
C|-----------------------|--~-------------------------|
G|-0---0---0-----0--0--0-|--0~----0---1-1-1~--1-1-1~--|
C|-0---0---0-----0--0--0-|--0~----0---0-0-0~--0-0-0~--|

Final Chorus - 
D|-----------------|---------------------------|--------------------------|----------------------|
A|-6-6-6-6-6-6-6/8-|--10-10-10-10-10-10--13-13-|--10-10-10-10-10-10-10-10-|--8-8-8-8-8--10-10-10-|
F|-x-x-x-x-x-x-x/x-|---x--x--x--x--x--x---x--x-|---x--x--x--x--x--x--x--x-|--x-x-x-x-x---x--x--x-|
C|-4-4-4-4-4-4-4/6-|---8--8--8--8--8--8--11-11-|---8--8--8--8--8--8--8--8-|--6-6-6-6-6---8--8--8-|
G|-----------------|---------------------------|--------------------------|----------------------|
C|-----------------|---------------------------|--------------------------|----------------------|

D|-----------------|---------------------------|--------------------------|-----------------------|
A|-6-6-6-6-6-6-6/8-|--10-10-10-10-10-10--13-13-|--10-10-10-10-10-10-10-10-|-10-10-10-10-10--8-8-8-|
F|-x-x-x-x-x-x-x/x-|---x--x--x--x--x--x---x--x-|---x--x--x--x--x--x--x--x-|--x--x--x--x--x--x-x-x-|
C|-4-4-4-4-4-4-4/6-|---8--8--8--8--8--8--11-11-|---8--8--8--8--8--8--8--8-|--8--8--8--8--8--6-6-6-|
G|-----------------|---------------------------|--------------------------|-----------------------|
C|-----------------|---------------------------|--------------------------|-----------------------|

D|-----------------|-----------------------|--------------------------|--------------------------| -
A|-6-6-6-6-6-6-6/8-|-10-10-10-10---8-8-8-8-|--10-10-10-10-10-10-10-10-|--10-10-10-10-10-10-10-10-| | Play
F|-x-x-x-x-x-x-x/x-|--x--x--x--x---x-x-x-x-|---x--x--x--x--x--x--x--x-|---x--x--x--x--x--x--x--x-| | this 
C|-4-4-4-4-4-4-4/6-|--8--8--8--8---6-6-6-6-|---8--8--8--8--8--8--8--8-|---8--8--8--8--8--8--8--8-| | part 
G|-----------------|-----------------------|--------------------------|--------------------------| | 2x
C|-----------------|-----------------------|--------------------------|--------------------------| =

D|-----------------|---------------------------|--------------------------|----------------------|
A|-6-6-6-6-6-6-6/8-|--10-10-10-10-10-10--13-13-|--10-10-10-10-10-10-10-10-|--8-8-8-8-8--10-10-10-|
F|-x-x-x-x-x-x-x/x-|---x--x--x--x--x--x---x--x-|---x--x--x--x--x--x--x--x-|--x-x-x-x-x---x--x--x-|
C|-4-4-4-4-4-4-4/6-|---8--8--8--8--8--8--11-11-|---8--8--8--8--8--8--8--8-|--6-6-6-6-6---8--8--8-|
G|-----------------|---------------------------|--------------------------|----------------------|
C|-----------------|---------------------------|--------------------------|----------------------|

D|-----------------|-----------------------|--------------------------|--------------------------|
A|-6-6-6-6-6-6-6/8-|-10-10-10-10---8-8-8-8-|--10-10-10-10-10-10-10-10-|--10-10-10-10-10-10-10-10-|
F|-x-x-x-x-x-x-x/x-|--x--x--x--x---x-x-x-x-|---x--x--x--x--x--x--x--x-|---x--x--x--x--x--x--x--x-|
C|-4-4-4-4-4-4-4/6-|--8--8--8--8---6-6-6-6-|---8--8--8--8--8--8--8--8-|---8--8--8--8--8--8--8--8-|
G|-----------------|-----------------------|--------------------------|--------------------------|
C|-----------------|-----------------------|--------------------------|--------------------------| 

Outro - Repeat Bridge 2 Pt 1 twice

=========================================================================================================


This is the RHYTHM guitar tab for "Infinite Escape" by SECRETS. To view the lead guitar, scroll up

Verse - 2x
D|-------------------|--------------------|------------------|-----------------------|
A|-------------------|--------------------|------------------|-----------------------|
F|-------------------|--------------------|------------------|-----------------------|
C|-------------------|--------------------|------------------|-----------------------|
G|-8-5---------------|--------------------|-5-4--------------|----------5-4----------|
C|-----0-8--7-0--3-0-|-0-0--0-0--8-0--7-3-|-----0-8--7-0--3-0|-0-0--0-0-----0--8-7-0-|

Bridge -
D|-----------------|-----------------|-----------------|-------|
A|-----------------|-----------------|-----------------|-------|
F|-----------------|-----------------|-----------------|-------|
C|-----------------|-----------------|-----------------|-------|
G|-1-0---1-0---1-0-|-1-0----0---0----|-1-0---1-0---1-0-|--1-0--|
C|-1-0---1-0---1-0-|-1-0----0---0----|-1-0---1-0---1-0-|--1-0--|

Chorus -
D|-----------------|------------------|----------------------|-------------------------|
A|-----------------|------------------|----------------------|-------------------------|
F|-----------------|------------------|----------------------|-------------------------|
C|-----------------|------------------|----------------------|-------------------------|
G|-5-5-5-5-5-5-5-5-|-8-8-8-8-8-8-8--0-|-12-12-12-12-12-12-12-|-10-10-10-10-10-10-10-10-|
C|-5-5-5-5-5-5-5-5-|-8-8-8-8-8-8-8--0-|-12-12-12-12-12-12-12-|-10-10-10-10-10-10-10-10-|

D|-----------------|------------------|-----------------|-----------------|
A|-----------------|------------------|-----------------|-----------------|
F|-----------------|------------------|-----------------|-----------------|
C|-----------------|------------------|-----------------|-----------------|
G|-5-5-5-5-5-5-5-5-|-8-8-8-8-8-8-8--0-|-0-0-0-0-0-0-0-0-|-0-0-0-0-0-0-0-0-|
C|-5-5-5-5-5-5-5-5-|-8-8-8-8-8-8-8--0-|-0-0-0-0-0-0-0-0-|-0-0-0-0-0-0-0-0-|

D|-----------------|------------------|----------------------|-------------------------|
A|-----------------|------------------|----------------------|-------------------------|
F|-----------------|------------------|----------------------|-------------------------|
C|-----------------|------------------|----------------------|-------------------------|
G|-5-5-5-5-5-5-5-5-|-8-8-8-8-8-8-8--0-|-12-12-12-12-12-12-12-|-10-10-10-10-10-10-10-10-|
C|-5-5-5-5-5-5-5-5-|-8-8-8-8-8-8-8--0-|-12-12-12-12-12-12-12-|-10-10-10-10-10-10-10-10-|

D|-----------------|------------------|-----------------|--------|
A|-----------------|------------------|-----------------|--------|
F|-----------------|------------------|-----------------|--------|
C|-----------------|------------------|-----------------|--------|
G|-5-5-5-5-5-5-5-5-|-8-8-8-8-8-8-8--0-|-8-8-8-8-7-7-7-7-|--------|
C|-5-5-5-5-5-5-5-5-|-8-8-8-8-8-8-8--0-|-8-8-8-8-7-7-7-7-|--------|

Repeat Verse | Repeat Bridge 2x 

Chorus 2 - 
D|-----------------|------------------|----------------------|-------------------------|
A|-----------------|------------------|----------------------|-------------------------|
F|-----------------|------------------|----------------------|-------------------------|
C|-----------------|------------------|----------------------|-------------------------|
G|-5-5-5-5-5-5-5-5-|-8-8-8-8-8-8-8--0-|-12-12-12-12-12-12-12-|-10-10-10-10-10-10-10-10-|
C|-5-5-5-5-5-5-5-5-|-8-8-8-8-8-8-8--0-|-12-12-12-12-12-12-12-|-10-10-10-10-10-10-10-10-|

D|-----------------|------------------|-----------------|-----------------|
A|-----------------|------------------|-----------------|-----------------|
F|-----------------|------------------|-----------------|-----------------|
C|-----------------|------------------|-----------------|-----------------|
G|-5-5-5-5-5-5-5-5-|-8-8-8-8-8-8-8--0-|-0-0-0-0-0-0-0-0-|-0-0-0-0-0-0-0-0-|
C|-5-5-5-5-5-5-5-5-|-8-8-8-8-8-8-8--0-|-0-0-0-0-0-0-0-0-|-0-0-0-0-0-0-0-0-|

D|-----------------|------------------|----------------------|-------------------------|
A|-----------------|------------------|----------------------|-------------------------|
F|-----------------|------------------|----------------------|-------------------------|
C|-----------------|------------------|----------------------|-------------------------|
G|-5-5-5-5-5-5-5-5-|-8-8-8-8-8-8-8--0-|-12-12-12-12-12-12-12-|-10-10-10-10-10-10-10-10-|
C|-5-5-5-5-5-5-5-5-|-8-8-8-8-8-8-8--0-|-12-12-12-12-12-12-12-|-10-10-10-10-10-10-10-10-|

D|-----------------|------------------|-----------------|-----------------|-----------------|--------|
A|-----------------|------------------|-----------------|-----------------|-----------------|--------|
F|-----------------|------------------|-----------------|-----------------|-----------------|--------|
C|-----------------|------------------|-----------------|-----------------|-----------------|--------|
G|-5-5-5-5-5-5-5-5-|-8-8-8-8-8-8-8--0-|-8-8-8-8-7-7-7-7-|-0-0-0-0-0-0-0-0-|-0-0-0-0-0-0-0-0-|--------|
C|-5-5-5-5-5-5-5-5-|-8-8-8-8-8-8-8--0-|-8-8-8-8-7-7-7-7-|-0-0-0-0-0-0-0-0-|-0-0-0-0-0-0-0-0-|--------|

Bridge Pt 1 - Play whole thing 4x 
*Note: did not tab out rhythm, you'll have to listen to the song to get the timing just right*
D|-----|---------|-----|--------------|
A|-----|---------|-----|--------------|
F|-----|---------|-----|--------------|
C|-----|---------|-----|--------------|
G|-0~--|---0-0-0-|-0~--|--0-0-0-0-0-0-|
C|-0~--|---0-0-0-|-0~--|--1-1-1-1-1-1-|

Bridge Pt 2 - Play whole thing 2x 
*Note: Again, you'll have to listen to the song to get the timing just right* 
D|-------------------------|-----------------------|-------------------------|------------------------|
A|-------------------------|-----------------------|-------------------------|------------------------|
F|-------------------------|-----------------------|-------------------------|------------------------|
C|-------------------------|-----------------------|-------------------------|------------------------|
G|-0~--0~--0~----0~-0~--0~-|--0~---0~--1~-1~-1~-1~-|-0~--0~--0~----0~-0~--0~-|--0~-0~--1-1-1~--1-1-1~-|
C|-0~--0~--0~----0~-0~--0~-|--0~---0~--0~-0~-0~-0~-|-0~--0~--0~----0~-0~--0~-|--0~-0~--0-0-0~--0-0-0~-|

Pre-Chorus (Optional) - 
|------------------|
|------------------|
|------------------|
|------------------|
|-x--x---x-x-x-x-x-|
|-x--x---x-x-x-x-x-|

Final Chorus - 
D|-----------------|------------------|-----------------|-----------------|-----------------|
A|-----------------|------------------|-----------------|-----------------|-----------------|
F|-----------------|------------------|-----------------|-----------------|-----------------|
C|-----------------|------------------|-----------------|-----------------|-----------------|
G|-5-5-5-5-5-5-5-5-|-8-8-8-8-8-8-8--0-|-8-8-8-8-7-7-7-7-|-0-0-0-0-0-0-0-0-|-0-0-0-0-0-0-0-0-|
C|-5-5-5-5-5-5-5-5-|-8-8-8-8-8-8-8--0-|-8-8-8-8-7-7-7-7-|-0-0-0-0-0-0-0-0-|-0-0-0-0-0-0-0-0-|

D|-----------------|------------------|-----------------|-----------------|
A|-----------------|------------------|-----------------|-----------------|
F|-----------------|------------------|-----------------|-----------------|
C|-----------------|------------------|-----------------|-----------------|
G|-5-5-5-5-5-5-5-5-|-8-8-8-8-8-8-8--0-|-0-0-0-0-0-0-0-0-|-0-0-0-0-0-0-0-0-|
C|-5-5-5-5-5-5-5-5-|-8-8-8-8-8-8-8--0-|-0-0-0-0-0-0-0-0-|-0-0-0-0-0-0-0-0-|

D|-----------------|------------------|-----------------|-----------------|-----------------|
A|-----------------|------------------|-----------------|-----------------|-----------------|
F|-----------------|------------------|-----------------|-----------------|-----------------|
C|-----------------|------------------|-----------------|-----------------|-----------------|
G|-5-5-5-5-5-5-5-5-|-8-8-8-8-8-8-8--0-|-8-8-8-8-7-7-7-7-|-0-0-0-0-0-0-0-0-|-0-0-0-0-0-0-0-0-|
C|-5-5-5-5-5-5-5-5-|-8-8-8-8-8-8-8--0-|-8-8-8-8-7-7-7-7-|-0-0-0-0-0-0-0-0-|-0-0-0-0-0-0-0-0-|

Outro - 
D|-----|---------|------|---------------|
A|-----|---------|------|---------------|
F|-----|---------|------|---------------|
C|-----|---------|------|---------------|
G|-0~--|---0-0-0-|--0~--|---0-0-0-0-0-0-|
C|-0~--|---0-0-0-|--0~--|---1-1-1-1-1-1-|
Добавлено: 07.05.2016
Другие материалы по этой песне:

Страница создана 25.09.2014
http://primanota.ru/secrets/infinite-escape-chords.htm
Привет, Гость.
Предлагаем пройти революционный курс по гитаре.
Подарок от PrimaNota.Ru, забирай!