PrimaNota.ru - самый крупный в мире бесплатный архив песенных текстов, аккордов, табулатур и нот


Secrets - How We Survive - таба, видео

Регистрация Запомнить меня
Войти через:  Facebook Google Twitter Vk Yandex Mail.ru

Secrets - How We Survive - таба, видео

Печатать
Просмотров: 70
-------------------------------------------------------------------------------
                             How We Survive - Secrets
-------------------------------------------------------------------------------
Tabbed by: AlphaWolfSquad

Tuning: Drop B


C#|---------------------------------------------------------------------------|
G#|---------------------------------------------------------------------------|
E |---------------------------------------------------------------------------|
B |--------3-------------------------------3----------------------------------| [x2]
F#|0-0-5---------------------000-0-0-0-5--------------------------------------|
B |0-0-----------------------000-0-0-0----------------------------------------|
   . .                       ... . . .
     
C#|---------------------------------------------------------------------------|
G#|---------------------------------------------------------------------------|
E |---------------------------------------------------------------------------|
B |---------------------------------------------------------------------------| [x2]
F#|000000--0-000-0-000-000-000-0000888888--8-888-8-10--10--10--10--10---------|
B |000000--0-000-0-000-000-000-0000888888--8-888-8-10--10--10--10--10---------|
   ......  . ... . ... ... ... ....         


C#|--------------|
G#|--------------|
E |--------------|
B |8-8-----11-11-|
F#|8-8-----11-11-|
B |8-8-----11-11-|

CHORUS
C#|-----------------------------------------------------------------|
G#|-----------------------------------------------------------------|
E |-----------------------------------------------------------------|
B |-----------------------------------------------------------------| [x2]
F#|-----------------------------------------------------------------|
B |8888888888888888555555555555555500000000000000000000000000000000-|
   ................................................................

C#|----------------------------------------------------------------|
G#|----------------------------------------------------------------|
E |----------------------------------------------------------------|
B |8-8-8-8-8-8-8-8---5-5-5-5-5-5-5-0-0-0-0---0-0-0---0-0-0---0-0-0-|
F#|8-8-8-8-8-8-8-8---5-5-5-5-5-5-5-0-0-0-0---0-0-0---0-0-0---0-0-0-|
B |8-8-8-8-8-8-8-8---5-5-5-5-5-5-5-0-0-0-0---0-0-0---0-0-0---0-0-0-|

C#|------------------------------------------------------------|
G#|------------------------------------------------------------|
E |------------------------------------------------------------|
B |8-8-8-8-8-8-8-8---5-5-5-5-5-5-5-0-------0-------------------|
F#|8-8-8-8-8-8-8-8---5-5-5-5-5-5-5-0-------0-------[PICKSLIDE]-|
B |8-8-8-8-8-8-8-8---5-5-5-5-5-5-5-0-------0-------------------|


C#|---------------------------------------------------------------------------|
G#|---------------------------------------------------------------------------|
E |----------------3----------------------------------------------------------|
B |4-----1-----0---3----1----0---4-----1-----0--------------------------------|
F#|4-----1-----0---1----1----0---4-----1-----0--------------------------------|
B |4-----1-----0--------1----0---4-----1-----0---4-1-0-0-4-1-0-0--------------|
                                                 . . . . . . . .               [x2]
C#|---------------------------------------------------------------------------|
G#|---------------------------------------------------------------------------|
E |----------------3----------------------------------------------------------|
B |4-----1-----0---3----1----0---4-----1--------------------------------------|
F#|4-----1-----0---1----1----0---4-----1--------------------------------------|
B |4-----1-----0--------1----0---4-----1-----0---0---0---0---0----------------|
                                                 .   .   .   .
C#|---------------------------------------------------------------------------|
G#|---------------------------------------------------------------------------|
E |---------------------------------------------------------------------------|
B |---------------------------------------------------------------------------| [x2]
F#|---------------------------------------------------------------------------|
B |00000---0000000---000---00000-0-11111---1111111---111---11111-1------------|
   .....   .......   ...   ..... . .....   .......   ...   ..... . 

CHORUS


C#|---------------------------------------------------------------------------|
G#|---------------------------------------------------------------------------|
E |---------------------------------------------------------7---6-------------|
B |---------------------------------------------------------7---6-------------|
F#|---------------------------------------------------------5---4-------------|
B |0-0000----00------00-00-0-00-00-0-0000-----0--0--0-00-00-------------------|
     ....    ..      .. .. . .. ..   ....     .  .  . .. ..

C#|---------------------------------------------------------------------------|
G#|---------------------------------------------------------------------------|
E |---------------------------------------------------------------------------|
B |---------------------------------------------------------------------------|
F#|---------------------------------------------------------------------------|
B |0-0000----00------00-00-0-00-00-0-0000-----0--0--0-00-00--4--1--0--4--1--0-|
     ....    ..      .. .. . .. .. . ....     .  .  . .. ..  .  .  .  .  .  .

C#|---------------------------------------------------------------------------|
G#|---------------------------------------------------------------------------|
E |---------------------------------------------------------------------------|
B |0---------------5------3---------------------------------------------------|
F#|0---------------5------3---------------------------------------------------|
B |0---------------5------3---------------------------------------------------|

C#|---------------------------------------------------------------------------|
G#|---------------------------------------------------------------------------|
E |---------------------------------------------------------------------------|
B |---------------------------------------------------------------------------| [x2]
F#|000---0-000-000---0-0-0-000-000-000---0-000-000---0-0-0-0-000-0------------|
B |000---0-000-000---0-0-0-000-000-000---0-000-000---0-0-0-1-001-1------------|
   ...   . ... ...   . . . ... ... ...   . ... ...   . . . . ... .

CHORUS [X2]


C#|---------------------------------------------------------------------------|
G#|---------------------------------------------------------------------------|
E |---------------------------------------------------------------------------|
B |8---------------5-------3-------0------------------------------------------|
F#|8---------------5-------3-------0------------------------------------------|
B |8---------------5-------3-------0------------------------------------------|






************************************

| /   slide up
| \   slide down
| h   hammer-on
| p   pull-off
| ~   vibrato
| +   harmonic
| x   Mute note
| b   Bend
| pb  Pre-bend
| br  Bend release
| pbr Pre-bend release
| brb Bend release bend

************************************
Добавлено: 16.11.2015
Другие материалы по этой песне:
  • Аккорды и текст

Страница создана 16.11.2015
http://primanota.ru/secrets/how-we-survive-chords.htm
Привет, Гость.
Предлагаем пройти революционный курс по гитаре.
Подарок от PrimaNota.Ru, забирай!