PrimaNota.ru - самый крупный в мире бесплатный архив песенных текстов, аккордов, табулатур и нот


Secrets - Ass Back Home - текст песни, таба, бас-таба, видео

Регистрация Запомнить меня
Войти через:  Facebook Google Twitter Vk Yandex Mail.ru

Secrets - Ass Back Home - текст песни, таба, бас-таба, видео

Печатать
Просмотров: 238
Авторы: Matt McGinley, David Silberstein, Ammar Malik, Disashi Lumumba-Kasongo, Daniel Omelio, Travie McCoy, Benjamin Levin

This is my first tab. I used Antoniyo55's bass tab to figure out the guitar, There's a
part in the bridge behind the chords that is a clean tremlo picking guitar almost. I'm
working on Finding that out.

Tuning: Drop D(DADGBE)

"I don't know...." Listen for exact strumming pattern.
E---------------------------|
B---------------------------|
G----8----------------------|
D----8x8---8-----3----------|
A----6-----8x8---3x16-------|
D----------8-----3----------|
*Palm Muted

Verse PT. 1
E--------------------------------------|
B--------------------------------------|
G--------------------------------------|
D--------------------------------------|
A---55555----33333--53---11111---33333-|
D---55555----33333--53---11111---33333-|
*Palm Muted
*they are 1's not 11's

Verse PT. 2
E--------------------------|
B--------------------------|
G--------------------------|
D--------------------------|
A----5-----3-----1-----3---|
D----5x8---3x8---1x8---3x8-|
*Palm Muted

Chorus(Same As Intro)
Repeat Verse's
Then Second Part of the verse does this

E|---------------------------------------------------------------------------|
B|---------------------------------------------------------------------------|
G|---------------------------------------------------------------------------|
D|---------------------------------------------------------------------------|
A|--5--------------3-3-3-3-3-----1--------------3-3-3-3-3--------------------|
D|--5's (triplets)-3-3-3-3-3-----1's (triplets)-3-3-3-3-3--------------------|

E|---------------------------------------------------------------------------|
B|---------------------------------------------------------------------------|
G|---------------------------------------------------------------------------|
D|---------------------------------------------------------------------------|
A|-5-5-5-5-5---3-----------------1-1-1-1-1--3-3-3-3-3------------------------|
D|-5-5-5-5-5---3's (triplets)----1-1-1-1-1--3-3-3-3-3------------------------|

Bridge:
E---------------|
B---------------|
G----8----------|
D----8---8----3-|
A----6---8----3-|
D--------8----3-|

This progression repeats back into the Chorus. There is a lead Clean behind it but I'm
still working on figuring that out. I hope this tab helped and like I said thanks to
Antoniyo55 for posting his bass tab to help me figure the guitar out! Any question's can 
be emailed to me at Danielalbertson94@yahoo.com Hope this helped!
Добавлено: 07.06.2013
Другие материалы по этой песне:
  • Аккорды и текст

Страница создана 07.06.2013
http://primanota.ru/secrets/ass-back-home-chords.htm
Привет, Гость.
Предлагаем пройти революционный курс по гитаре.
Подарок от PrimaNota.Ru, забирай!