PrimaNota.ru - самый крупный в мире бесплатный архив песенных текстов, аккордов, табулатур и нот


Secretos (Los) - Ojos De Gata - аккорды и текст, таба, видео

Регистрация Запомнить меня
Войти через:  Facebook Google Twitter Vk Yandex Mail.ru

Secretos (Los) - Ojos De Gata - аккорды и текст, таба, видео

Печатать
Просмотров: 175
Ojos De Gata
Secretos (Los)
Estos son los acordes y los punteos, pero se necesita cejilla en el 2º traste

e ---2-2--3h2---0h2-2-3h2---0h2-2-3-2-0-----0----|
b ---3-3------3-----------3-------------3-2------|
g -----------------------------------------------|
d -----------------------------------------------|
a -----------------------------------------------|
e -----------------------------------------------|


e---0-0-2h0-----0-0-2h0------5h3-2-----|
b---1-1-----1-3---------1-3--------5h2-|
g--------------------------------------|
d--------------------------------------|
a--------------------------------------|
e--------------------------------------|


D
Fue en un pueblo con mar
                            A
Una noche después de un concierto

Tu reinabas detrás

De la barra del único bar
            D
Que vimos abierto
                       D7
Cántame una canción al oído
              G  A
Te sirvo y no pagas
     G               A
Solo canto si tu me demuestras
                G        A      D
Que es verde la luz de tus ojos de gata.

[de acuerdo con Antonio Suárez Ramón]
                 e---3-----------3---------|
                 B-----2-------2---2-----2-|
                 G-------3---3-------3-----|
                 D-0-------0-----------0---|
                 A-------------------------|
                 E-------------------------|

D
Loco por que me diera
                    A
la llave de su dormitorio

Esa noche cante

Al piano del amanecer
             D
Todo mi repertorio
                        D7
Con el quiero beber el alcohol
                   G   A
Me acuno entre sus mantas
    G                A
Y soñé con sus ojos de gata
            G
Pero no recordé
       A          D
que de mi algo esperaban. 

e---3-----------3---------|
B-----2-------2---2-----2-|
G-------3---3-------3-----|
D-0-------0-----------0---|
                          A-------------------------|
                          E-------------------------|
Go:
                                  D
e-----------------------------------2-2s5-2-------2-2s5-2-----------------|
B---------------------------------3---------3---3---------3--5-3-2h5-2----|
G--------------------------------2-------------2-------------2------------|
D---0h2-2s4-4-4-4-0-2 2s4-5-2-4-------------------------------------------|
A-0-----------------------------------------------------------------------|
E-------------------------------------------------------------------------|

   A
e----------0-----/------------2s5-2----5-/-3-2-10-9-7-12-9-9s10-9s12-12-10-|
B--------2---3-2-/-----2-3-5-------5-3---/---------------------------------|
G------2---------/-2-4-------------------/---------------------------------|
D----2-----------/-----------------------/---------------------------------|
A--0-------------/-----------------------/---------------------------------|
E----------------/-----------------------/---------------------------------|


D
Desperté con resaca y busque
                  A
Pero allí ya no estabas

Me dijeron que se mosqueó

Porque me emborrache
                  D
Y la use como almohada
                      D7
Comento por ahí que yo era
              G   A
Un chaval ordinario
      G
Pero como explicar
       A
Que me vuelvo vulgar
     G       A      D
Al bajarme de cada escenario. e---3-----------3---------|
                              B-----2-------2---2-----2-|
                              G-------3---3-------3-----|
                              D-0-------0-----------0---|
                              A-------------------------|
                              E-------------------------|
      G
Pero como explicar
       A
Que me vuelvo vulgar
     G       A      D
Al bajarme de cada escenario. e---3-----------3---------|
                              B-----2-------2---2-----2-|
                              G-------3---3-------3-----|
                              D-0-------0-----------0---|
                              A-------------------------|
                              E-------------------------|

Добавлено: 01.08.2015
Другие материалы по этой песне:
  • Аккорды и текст

Страница создана 20.03.2012
http://primanota.ru/secretos-los/ojos-de-gata-chords.htm
Привет, Гость.
Предлагаем пройти революционный курс по гитаре.
Подарок от PrimaNota.Ru, забирай!