PrimaNota.ru - самый крупный в мире бесплатный архив песенных текстов, аккордов, табулатур и нот


Secret Services - Oh Susie - таба, видео

Регистрация Запомнить меня
Войти через:  Facebook Google Twitter Vk Yandex Mail.ru

Secret Services - Oh Susie - таба, видео

Печатать
Просмотров: 170
Уроки эстрадного вокала в Санкт-Петербурге
OH SUSIE - SECRET SERVICE

Enjoy!!! Yhe great song of Secret Service.

Tabbed at 21_06_2012

Intro (Am) F Fm


Keyboard Riff (whole song in the Am note)



E-----12-----12------12----12-----------|
B---------15------13----12--------------|
G-14------------------------------------|
D---------------------------------------|
A---------------------------------------|
E---------------------------------------|

Guitar riff


E--------8-7------------------------------|
B------------6-5--------------------------|
G-----------------------------------------|
D-----------------------------------------|
A-----------------------------------------|
E-----------------------------------------|

Guitar Chorus


E---12-10-12-12-10-13-12----12-10-12-12-10-13-12-----------------------|
B------------------------13----------------------15-13--15-13--9~~/10--|
G----------------------------------------------------------------------|
D----------------------------------------------------------------------|
A----------------------------------------------------------------------|
E----------------------------------------------------------------------|


(CHORUS)

C
Oh, susie
F
We've run out of time
C
Oh, susie
                     F
Say what's on your mind
G                    F
          We've got nowhere to run
G                     F  Fm                    Am   guitar riff
                           We were much too young.

Am
Love is warm and understanding
E
When you're seventeen
Love is cold
                        Am  guitar riff
Kills your dreams and schemes
Am
Much too young
The words are comin'
E
Like a neonlight
Of and on
                  F Fm
Bringin' back last night
Bringin' back last night.


CHORUS

C
Oh, susie
F
We've run out of time
C
Oh, susie
                     F
Say what's on your mind
G                    F
          We've got nowhere to run
G                     F  Fm                    Am guitar riff
                           We were much too young


Am
I'm in love
And nothing else can
E
Make me feel this way
                             Am    guitar riff
Now i'm lost not much more to say
Am
Radio
                         E
The song they're playin' can't be rightly sung
Off and on
                 F       Fm
Singin' much too young
Singin' much too young.

CHORUS

C
Oh, susie
F
We've run out of time
C
Oh, susie
                     F
Say what's on your mind
G                    F
          We've got nowhere to run
G                     F  Fm                    Am
                           We were much too young.


solo ( Am E D F Fm)


E-----------------16-17/19-19-17----------|
B-----------15-17----------------17-------|
G--14-16-17-------------------------------|
D-----------------------------------------|
A-----------------------------------------|
E-----------------------------------------|


E----------12-------------------12-----------------|
B-15-13-15-----15-13------13-15----15-13-----------|
G-----------------------------------------13/12----|
D--------------------------------------------------|
A--------------------------------------------------|
E--------------------------------------------------|

CHORUS

C
Oh, susie
F
We've run out of time
C
Oh, susie
                     F
Say what's on your mind
G                    F
        We've got nowhere to run
G                     F  Fm                    Am
                           We were much too young

C
Oh, susie
F
We've run out of time
C
Oh, susie
                     F
Say what's on your mind
G                    F
We've got nowhere to run
G                     F  Fm                    Am
                           We were much too young.


final (repeat guitar chorus) or C F C F G F G F Fm Am


THANK YOU!

Carbonera

www.youtube.com/morgangc - visit my channel!
Добавлено: 01.07.2013
Другие материалы по этой песне:
  • Аккорды и текст

Страница создана 01.07.2013
http://primanota.ru/secret-services/oh-susie-chords.htm
Привет, Гость.
Предлагаем пройти революционный курс по гитаре.
Подарок от PrimaNota.Ru, забирай!