PrimaNota.ru - самый крупный в мире бесплатный архив песенных текстов, аккордов, табулатур и нот


Secret Project - Behind The Shadows - таба, видео

Регистрация Запомнить меня
Войти через:  Facebook Google Twitter Vk Yandex Mail.ru

Secret Project - Behind The Shadows - таба, видео

Печатать
Просмотров: 70
Уроки эстрадного вокала в Санкт-Петербурге
-------------------------------------------------------------------------------
                             Secret Project - Behind The Shadows 
                             Album - Behind The Shadows
-------------------------------------------------------------------------------

Tuning: eBGDAE

~Rythm Guitar~

0:00 Part 1 - Philip Bergwall

e|----------------|----------------|----------------|----------------|
B|----8-------7---|----10------8---|----7-------5---|----8-------7---|
G|--0---0---0---0-|--0---0---0---0-|--0---0---0---0-|--0---0---0---0-|
D|----------------|----------------|----------------|----------------|
A|7-------7-------|7-------7-------|5-------5-------|5-------5-------|
E|----------------|----------------|----------------|----------------|

e|----------------|----2-----------|----------------|----------------|
B|----5-------3---|------------5---|----3-------5---|----1-------0---|
G|--0---0---0---0-|--0---0---0---0-|--0---0---0---0-|--0---0---0---0-|
D|----------------|----------------|----------------|----------------|
A|3-------3-------|3-------3-------|2-------2-------|2-------2-------|
E|----------------|----------------|----------------|----------------|

0:18 Part 2 - Philip Bergwall

e|----------------|----------------|----------------|----------------|
B|----8-------7---|----10------8---|----7-------5---|----8-------7---|
G|--0---0---0---0-|--0---0---0---0-|--0---0---0---0-|--0---0---0---0-|
D|----------------|----------------|----------------|----------------|
A|7-------7-------|7-------7-------|5-------5-------|5-------5-------|
E|----------------|----------------|----------------|----------------|

e|----------------|----2-----------|----------------|----2-------2---|
B|----5-------3---|------------5---|----3-------5---|------1-----0---|
G|--0---0---0---0-|--0---0---0---0-|--0---0---0---0-|--2-------2-----|
D|----------------|----------------|----------------|--------1-------|
A|3-------3-------|3-------3-------|2-------2-------|2---------------| 
E|----------------|----------------|----------------|----------------| x2

0:51 Part 3 - Tobias Andersson                      
                                                              h p
e|----------------|----------------|----------------|-----------------|
B|------------0---|------------0---|------------3---|---------0-1-0---|
G|----0-----------|----0-----------|----0---------0-|----0----------0-|
D|--2---2---2-----|--2---2---2-----|--4---4---4-----|--2---2----------|
A|2-------2-------|2-------2-------|5-------5-------|3-------3--------|
E|----------------|----------------|----------------|-----------------| x2

1:07 Part 4 - Tobias Andersson

e|----------------|------------0---|------------3---|------------0----|
B|------------0---|----------------|----------------|----3-------1----|
G|----0-----------|----0-----------|----0-----------|--2---2---2------|
D|--2---2---2-----|--2---2---2-----|--0---0---0-----|0-------0--------|
A|2-------2-------|2-------2-------|----------------|-----------------|
E|----------------|----------------|3-------3-------|-----------------| x2

1:29 Part 5 - Philip Bergwall

e|----7-------7---|----5-------3---|----7-------7---|----5-------3---|
B|--8---8---8---8-|--5---5---3---3-|--8---8---8---8-|--5---5---3---3-|
G|9-------9-------|7-------5-------|9-------9-------|7-------5-------|
D|----------------|----------------|----------------|----------------|
A|----------------|----------------|----------------|----------------|
E|----------------|----------------|----------------|----------------|

e|----7-------7---|----5-------3---|----7-----------|----5-----------|
B|--8---8---8---8-|--5---5---3---3-|--8---8---------|--5---5---------|
G|9-------9-------|7-------5-------|9---------------|7---------------|
D|----------------|----------------|----------------|----------------|
A|----------------|----------------|----------------|----------------| 
E|----------------|----------------|----------------|----------------| x3

~Lead Guitar~ 

0:51 Part 1 - Philip Bergwall
                                                        /
e|0---------------|----------------|----------------|----------------|
B|5---------------|--------5---7---|8-----------8-7-|----------------|
G|----------------|----------------|----------------|5--5-7---7------|
D|----------------|----------------|----------------|----------------|
A|----------------|----------------|----------------|----------------| 
E|----------------|----------------|----------------|----------------| x2

1:07 Part 2 - Tobias Andersson
                                                                  p
e|----------------|----------------|----------------|-----------------|
B|5---------------|8-7-5-----7-----|8---------------|10--8-7----7-8-7-|
G|----------------|------7---------|----------------|-----------------|
D|----------------|----------------|----------------|-----------------|
A|----------------|----------------|----------------|-----------------|
E|----------------|----------------|----------------|-----------------| x2

1:47 Part 3 - Tobias Andersson
                   /     /     /                     \     \     \
e|----------------|----0-----0-----|----------------|----0-----0-----|
B|--0-------------|3-5---5-7---7-8-|--0-------------|8-7---7-5---5-3-|
G|------0---------|----------------|------0---------|----------------|
D|2---------------|----------------|2---------------|----------------|
A|----------------|----------------|----------------|----------------|
E|----------------|----------------|----------------|----------------|

                   /     /     /                     
e|----------------|----0-----0-----|----------------|----------------|
B|--0-------------|3-5---5-7---7-8-|1---------------|3---------------|
G|------0---------|----------------|0---------------|2---------------|
D|2---------------|----------------|----------------|----------------|
A|----------------|----------------|----------------|----------------|
E|----------------|----------------|----------------|----------------| x2

2:03 Part 4 - Philip Bergwall
   h p              h p                 h p              h p
e|-7-8-7----------|-7-8-7-----10-|    |-7-8-7-7--------|-7-8-7-10--------|
B|-------8--------|-------8------|    |----------------|-----------------|
G|----------7-----|--------------|    |----------------|-----------------|
D|----------------|--------------|    |----------------|-----------------|
A|----------------|--------------|    |----------------|-----------------|
E|----------------|--------------| x3 |----------------|-----------------|

Links:

Secret Project on Spotify:
https://open.spotify.com/album/4NzIGZ9vCexZIXtAw9gvcH

Secret Project on Facebook:
https://www.facebook.com/Secret-Project-721907631222931/?ref=bookmarks

My Youtube channel:
https://www.youtube.com/channel/UC0aYtoOf8WjtEpmdGmetgzA/videos


************************************

| /   slide up
| \   slide down
| h   hammer-on
| p   pull-off
| ~   vibrato
| +   harmonic
| x   Mute note
| b   Bend
| pb  Pre-bend
| br  Bend release
| pbr Pre-bend release
| brb Bend release bend

************************************
Добавлено: 26.06.2016
Другие материалы по этой песне:
  • Аккорды и текст

Страница создана 26.06.2016
http://primanota.ru/secret-project/behind-shadows-chords.htm
Привет, Гость.
Предлагаем пройти революционный курс по гитаре.
Подарок от PrimaNota.Ru, забирай!