PrimaNota.ru - самый крупный в мире бесплатный архив песенных текстов, аккордов, табулатур и нот


Secret Colours - Rotten Summer - бас-таба, видео

Регистрация Запомнить меня
Войти через:  Facebook Google Twitter Vk Yandex Mail.ru

Secret Colours - Rotten Summer - бас-таба, видео

Печатать
Просмотров: 19
Symbol Glossary:
~       hold note
/       slide up
\       slide down

0:13
G||---------------|--------------|--------------|-------------||
D||---------------|--------------|--------------|-------------||
A||--6--6--6--6---|-4--4--4--4---|--------------|-----------4-||
E||-------------6-|------------2-|-4--4--4--4-2-|-4--4--4-6---||

G||---------------|--------------|--------------|-------------||
D||---------------|--------------|--------------|-------------||
A||--6--6--6--6---|-4--4--4--4---|--------------|-----------4-||
E||-------------6-|------------2-|-4--4--4--4-2-|-4--4--4-6---||

0:27
G||--------------|-------------|-----------|------------||
D||--------8-6-4-|-------4-6-8-|-6---------|------------||
A||--6-----------|-4-----------|------6\---|----------4-||
E||--------------|-------------|-----------|-4----4-6---||

G||--------------|-------------|-----------|------------||
D||--------8-6-4-|-------4-6-8-|-6---------|------------||
A||--6-----------|-4-----------|------6\---|------------||
E||--------------|-------------|-----------|------------||

0:40
G||-----------|----------|----------|----------||
D||-----------|----------|----------|----------||
A||--6--------|-4--------|----------|--------4-||
E||---------6-|--------2-|-4------2-|-4----6---||

G||-----------|----------|-----------|| 
D||-----------|----------|-----------||
A||--6--------|-4--------|-----------||
E||---------6-|--------2-|-4------4/-||

0:52
G||-------------|-------------|-6----------|------------||
D||-------------|-----8--9--8-|----9--6----|-6----------||
A||--------6--7-|--9----------|----------9-|----9--6----||
E||-/7--9-------|-------------|------------|----------9-||

G||------------|-------------|-6----------|------------||
D||------------|-----8--9--8-|----9--6----|-6----------||
A||-------6--7-|--9----------|----------9-|----9--6----||
E||-7--9-------|-------------|------------|----------9-||

G||------------|-------------|-6----------|------------||
D||------------|-----8--9--8-|----9--6----|-6----------||
A||-------6--7-|--9----------|----------9-|----9--6----||
E||-7--9-------|-------------|------------|----------9-||

G||------------|-----------------|-----------|-----------||
D||--9---------|--9------11-10-9-|-8---------|-8---------||
A||-------9----|-------9---------|------8----|------8\---||
E||------------|-----------------|-----------|-----------||

1:20
G||---------------|--------------|--------------|-------------||
D||---------------|--------------|--------------|-------------||
A||--6--6--6--6---|-4--4--4--4---|--------------|-----------4-||
E||-------------6-|------------2-|-4--4--4--4-2-|-4--4--4-6---||

G||---------------|--------------|-------------|-----------------------||
D||---------------|--------------|-------------|------11-13-----11-13--||
A||--6--6--6--6---|-4--4--4--4---|-------------|-/13--------13---------||
E||-------------6-|------------2-|-4--4--4--4--|-----------------------||

1:34
G||----------|---------|---------|---------||
D||----------|---------|---------|---------||
A||--6-------|-4-------|---------|---------||
E||----------|---------|-4-------|-4~------||

G||--------------|-------------|-----------|------------||
D||--------8-6-4-|-------4-6-8-|-6---------|------------||
A||-/6-----------|-4-----------|------6\---|------------||
E||--------------|-------------|-----------|------------||

1:47
G||-----------|----------|----------|----------||
D||-----------|----------|----------|----------||
A||--6--------|-4--------|----------|--------4-||
E||---------6-|--------2-|-4------2-|-4----6---||

G||-----------|----------|-----------|| 
D||-----------|----------|-----------||
A||--6--------|-4--------|-----------||
E||---------6-|--------2-|-4------4/-||

1:59
G||-------------|-------------|-6----------|------------||
D||-------------|-----8--9--8-|----9--6----|-6----------||
A||--------6--7-|--9----------|----------9-|----9--6----||
E||-/7--9-------|-------------|------------|----------9-||

G||------------|-------------|-6----------|------------||
D||------------|-----8--9--8-|----9--6----|-6----------||
A||-------6--7-|--9----------|----------9-|----9--6----||
E||-7--9-------|-------------|------------|----------9-||

G||------------|-------------|-6----------|------------||
D||------------|-----8--9--8-|----9--6----|-6----------||
A||-------6--7-|--9----------|----------9-|----9--6----||
E||-7--9-------|-------------|------------|----------9-||

G||------------|-----------------|-----------|-----------||
D||--9---------|--9------11-10-9-|-8---------|-8---------||
A||-------9----|-------9---------|------8----|------8\---||
E||------------|-----------------|-----------|-----------||

2:27
G||---------------|-------------|---------------|-------------||
D||---------------|-------------|---------4-----|-------------||
A||--4--4--4--4---|-----------4-|-6--6--6---6-4-|-------------||
E||-------------2-|-4--4--4-6---|---------------|-6--6--6-6-4-||

G||---------------|-------------|---------------|-------------||
D||---------------|-------------|---------4-----|-------------||
A||--4--4--4--4---|-----------4-|-6--6--6---6-4-|-------------||
E||-------------2-|-4--4--4-6---|---------------|-6--6--6-6-4-||

G||---------------|-------------|---------------||
D||---------------|-------------|---------4-----||
A||--4--4--4--4---|-----------4-|-6--6--6---6-4-||
E||-------------2-|-4--4--4-6---|---------------||

2:45
G||------------|-------------|-6----------|------------||
D||------------|-----8--9--8-|----9--6----|-6----------||
A||-------6--7-|--9----------|----------9-|----9--6----||
E||-7--9-------|-------------|------------|----------9-||

G||------------|-------------|-6----------|------------||
D||------------|-----8--9--8-|----9--6----|-6----------||
A||-------6--7-|--9----------|----------9-|----9--6----||
E||-7--9-------|-------------|------------|----------9-||

G||------------|-------------|-6-9-6---------|------------||
D||------------|-----8--9--8-|-------9-6---6-|-6----------||
A||-------6--7-|--9----------|-----------9---|----9--6----||
E||-7--9-------|-------------|---------------|----------9-||

G||------------|-----------------|-----------|----------||
D||--9---------|--9------11-10-9-|-8---------|-8~-------||
A||-------9----|-------9---------|------8----|----------||
E||------------|-----------------|-----------|----------||

3:13
G||---------------|--------------|--------------|-------------||
D||---------------|--------------|--------------|-------------||
A||--6--6--6--6---|-4--4--4--4---|--------------|-----------4-||
E||-------------6-|------------2-|-4--4--4--4-2-|-4--4--4-6---||

G||---------------|--------------|-------------|-----------------------||
D||---------------|--------------|-------------|------11-13-----11-13--||
A||--6--6--6--6---|-4--4--4--4---|-------------|-/13--------13---------||
E||-------------6-|------------2-|-4--4--4--4--|-----------------------||

G||---------------|--------------|--------------|-------------||
D||---------------|--------------|--------------|-------------||
A||--6--6--6--6---|-4--4--4--4---|--------------|-----------4-||
E||-------------6-|------------2-|-4--4--4--4-2-|-4--4--4-6---||

G||---------------|--------------|--------------|-------------||
D||---------------|--------------|--------------|-------------||
A||--6--6--6--6---|-4--4--4--4---|--------------|-----------4-||
E||-------------6-|------------2-|-4--4--4--4-2-|-4--4--4-6---||

3:41
G||--------------|----------|----------|-----------||
D||------4-------|----------|----------|-----------||
A||--6-----6-4---|-4--------|----------|---------4-||
E||------------6-|----------|----------|-------6---||

G||--------------|----------|----------|-----------||
D||------4-------|----------|----------|-----------||
A||--6-----6-4---|-4--------|----------|---------4-||
E||------------6-|--------2-|-4--------|-------6---||

3:54
G||---------------|--------------|--------------|-------------||
D||---------------|--------------|--------------|-------------||
A||--6--6--6--6---|-4--4--4--4---|--------------|-----------4-||
E||-------------6-|------------2-|-4--4--4--4-2-|-4--4--4-6---||

G||---------------|--------------|--------------|-------------||
D||---------------|--------------|--------------|-------------||
A||--6--6--6--6---|-4--4--4--4---|--------------|-----------4-||
E||-------------6-|------------2-|-4--4--4--4-2-|-4--4--4-6---||
Добавлено: 30.11.2015
Другие материалы по этой песне:
  • Аккорды и текст

Страница создана 30.11.2015
http://primanota.ru/secret-colours/rotten-summer-chords.htm
Привет, Гость.
Предлагаем пройти революционный курс по гитаре.
Подарок от PrimaNota.Ru, забирай!