PrimaNota.ru - самый крупный в мире бесплатный архив песенных текстов, аккордов, табулатур и нот


Secret Chiefs 3 - Renunciation - таба, видео

Регистрация Запомнить меня
Войти через:  Facebook Google Twitter Vk Yandex Mail.ru

Secret Chiefs 3 - Renunciation - таба, видео

Печатать
Просмотров: 123
Авторы музыки: Ananda Shankar

Secret Chiefs 3 - Renunciation (Capo on 1st)
Tabbed by: Neil R. Rose
neil.damage.done@gmail.com

This tab is not very accurate. I kind of laid down just the outline of it. I'm hoping 
can enhance the song. Any help would be greatly appreciated.
Any info contact: neil.damage.done@gmail.com

Capo on 1st

|-----------0----0-----------------0----0-----------------------------------|
|--------0----------0-----------0----------0--------------------------------|
|-----2----------------2-----2----------------2-----------------------------|
|--3----------------------3----------------------3--------------------------|
|---------------------------------------------------------------------------|
|---------------------------------------------------------------------------|

Section 1
|----------------5----------------------------------------------------------|
|--0---3--5-6-5-----6---5--6--5--3-----0--3--5-6-5--6--5--3-5-3-------------|
|---------------------------------------------------------------------------|
|---------------------------------------------------------------------------|
|---------------------------------------------------------------------------|
|---------------------------------------------------------------------------|

Riff 1
|---6/7\6---4---------------------------------------------------------------|
|--------------6---4---4---6/7-7-7-7-6--------------------------------------|
|--------------------5------------------------------------------------------|
|---------------------------------------------------------------------------|
|---------------------------------------------------------------------------|
|---------------------------------------------------------------------------|

Section 2
|---7----5-7/8--7--5--7--5----0---5/7---5h7p5----0--3---5/8---5--3----------|
|-------------------------------------------------------------------6--5----|
|---------------------------------------------------------------------------|
|---------------------------------------------------------------------------|
|---------------------------------------------------------------------------|
|---------------------------------------------------------------------------|


http://www.webofmimicry.com/label.php?band=sc3
http://www.myspace.com/secretchiefs3
Добавлено: 21.02.2012
Другие материалы по этой песне:
  • Аккорды и текст

Страница создана 21.02.2012
http://primanota.ru/secret-chiefs-3/renunciation-chords.htm
Привет, Гость.
Предлагаем пройти революционный курс по гитаре.
Подарок от PrimaNota.Ru, забирай!