PrimaNota.ru - самый крупный в мире бесплатный архив песенных текстов, аккордов, табулатур и нот


Sebastien Grainger - Who do we care for - таба, видео

Регистрация Запомнить меня
Войти через:  Facebook Google Twitter Vk Yandex Mail.ru

Sebastien Grainger - Who do we care for - таба, видео

Печатать
Просмотров: 54
Авторы музыки: Sebastien Grainger



-------------------------------------------------------------------------------
	Who Do We Care For - Sebastien Grainger et Les Montagnes
-------------------------------------------------------------------------------
Tabbed by: Luke Swietlicki   August 8th 2007
Email: luke_swits@hotmail.com

I've been a DFA fan from the start, and it's sucks that they broke up, but even without a distorted
Bass, Sebastien still sounds so damn good. This song is pretty easy to pick up. If it doesn't
Sound right, you're not strumming right, listen to the song. I'm pretty sure I got this
Song almost 100% accurate, some was done by ear and some was done by watching videos.
The version on his my space is shorter, this is the extended performance version.


Tuning: Standard

Intro


e|---------------------------------------------------------------------------| x2
B|---------------------------------------------------------------------------|
G|---------------------------------------------------------------------------|
D|--888-0-333-55555555--888-0-333-55555555-----------------------------------|
A|--888-0-333-55555555--888-0-333-55555555-----------------------------------|
E|--666-0-111-33333333--666-0-111-33333333-----------------------------------|


After playing that riff twice, play this small variation after.

e|---------------------------------------------------------------------------|
B|---------------------------------------------------------------------------|
G|---------------------------------------------------------------------------|
D|--777-0-333-55555555--888-0-333-55555555-888-0-333-55555555-888-0-333-55555555|
A|--777-0-333-55555555--888-0-333-55555555-888-0-333-55555555-888-0-333-55555555|
E|--555-0-111-33333333--666-0-111-33333333-666-0-111-33333333-666-0-111-33333333|


Verse 1

Very similar as the intro, but you have to palm mute it. When you're playing the
Last little riff, make sure you don't palm mute the last 3 or 4 chords and just strum
It normally.

e|---------------------------------------------------------------------------| x4
B|---------------------------------------------------------------------------|
G|---------------------------------------------------------------------------|
D|--888-0-333-55555555-888-0-333-55555555------------------------------------|
A|--888-0-333-55555555-888-0-333-55555555------------------------------------|
E|--666-0-111-33333333-666-0-111-33333333------------------------------------|

Chorus ("Who do we care for, who do we make our friends..."):

Really easy, make sure you sneak in that last set of chords by simply
just shifting your root a note up the neck, from 6 to 5.

e|---------------------------------------------------------------------------| x 2
B|---------------------------------------------------------------------------|
G|---------------------------------------------------------------------------|
D|-13-13-13-13-13-13-13-13-8-8-8-8-8-8-8-8-13-13-13-13-13-13-13-13-8-8-8-8-8-8-8-8-8-8-8-8|
A|-13-13-13-13-13-13-13-13-8-8-8-8-8-8-8-8-13-13-13-13-13-13-13-13-8-8-8-8-8-8-8-8-8-8-8-8|
E|-11-11-11-11-11-11-11-11-6-6-6-6-6-6-6-6-11-11-11-11-11-11-11-11-6-6-6-6-6-6-6-6-5-5-5-5|

After the chorus play this

e|---------------------------------------------------------------------------|
B|---------------------------------------------------------------------------|
G|---------------------------------------------------------------------------|
D|-5555555555555555-5555555555555555-----------------------------------------|
A|-5555555555555555-5555555555555555-----------------------------------------|
E|-3333333333333333-3333333333333333-----------------------------------------|

Then this again

e|---------------------------------------------------------------------------| x2
B|---------------------------------------------------------------------------|
G|---------------------------------------------------------------------------|
D|--888-0-333-55555555--888-0-333-55555555-----------------------------------|
A|--888-0-333-55555555--888-0-333-55555555-----------------------------------|
E|--666-0-111-33333333--666-0-111-33333333-----------------------------------|

This again but palm muted.

e|---------------------------------------------------------------------------| x2
B|---------------------------------------------------------------------------|
G|---------------------------------------------------------------------------|
D|--888-0-333-55555555-888-0-333-55555555-888-0-333-55555555-----------------|
A|--888-0-333-55555555-888-0-333-55555555-888-0-333-55555555-----------------|
E|--666-0-111-33333333-666-0-111-33333333-666-0-111-33333333-----------------|

After that, he sings, "Ooooh the fire", that's when you play this little bit.
Palm muted of course. When he plays it he doesn't mute the last few chords.

e|---------------------------------------------------------------------------|
B|---------------------------------------------------------------------------|
G|---------------------------------------------------------------------------|
D|-8888888888888888-3333333333333333-----------------------------------------|
A|-8888888888888888-3333333333333333-----------------------------------------|
E|-6666666666666666-1111111111111111-----------------------------------------|

Play this again.

e|---------------------------------------------------------------------------| x 2
B|---------------------------------------------------------------------------|
G|---------------------------------------------------------------------------|
D|-13-13-13-13-13-13-13-13-8-8-8-8-8-8-8-8-13-13-13-13-13-13-13-13-8-8-8-8-8-8-8-8-8-8-8-8|
A|-13-13-13-13-13-13-13-13-8-8-8-8-8-8-8-8-13-13-13-13-13-13-13-13-8-8-8-8-8-8-8-8-8-8-8-8|
E|-11-11-11-11-11-11-11-11-6-6-6-6-6-6-6-6-11-11-11-11-11-11-11-11-6-6-6-6-6-6-6-6-5-5-5-5|

Then this, very similar from before, but you just add a different chord at the last part.

e|---------------------------------------------------------------------------|
B|---------------------------------------------------------------------------|
G|---------------------------------------------------------------------------|
D|-5555555555555555-3333333333333333-----------------------------------------|
A|-5555555555555555-3333333333333333-----------------------------------------|
E|-3333333333333333-1111111111111111-----------------------------------------|

Repeat

e|---------------------------------------------------------------------------| x 2
B|---------------------------------------------------------------------------|
G|---------------------------------------------------------------------------|
D|-13-13-13-13-13-13-13-13-8-8-8-8-8-8-8-8-13-13-13-13-13-13-13-13-8-8-8-8-8-8-8-8-8-8-8-8|
A|-13-13-13-13-13-13-13-13-8-8-8-8-8-8-8-8-13-13-13-13-13-13-13-13-8-8-8-8-8-8-8-8-8-8-8-8|
E|-11-11-11-11-11-11-11-11-6-6-6-6-6-6-6-6-11-11-11-11-11-11-11-11-6-6-6-6-6-6-6-6-5-5-5-5|

Repeat

e|---------------------------------------------------------------------------|
B|---------------------------------------------------------------------------|
G|---------------------------------------------------------------------------|
D|-5555555555555555-3333333333333333-----------------------------------------|
A|-5555555555555555-3333333333333333-----------------------------------------|
E|-3333333333333333-1111111111111111-----------------------------------------|

Ending:

Play this again, and just abruptly finish

e|---------------------------------------------------------------------------| x2
B|---------------------------------------------------------------------------|
G|---------------------------------------------------------------------------|
D|--888-0-333-55555555--888-0-333-55555555-----------------------------------|
A|--888-0-333-55555555--888-0-333-55555555-----------------------------------|
E|--666-0-111-33333333--666-0-111-33333333-----------------------------------|






Добавлено: 28.02.2014
Другие материалы по этой песне:
  • Аккорды и текст

Страница создана 28.02.2014
http://primanota.ru/sebastien-grainger/who-do-we-care-for-chords.htm
Привет, Гость.
Предлагаем пройти революционный курс по гитаре.
Подарок от PrimaNota.Ru, забирай!