PrimaNota.ru - самый крупный в мире бесплатный архив песенных текстов, аккордов, табулатур и нот


Sebastian - Nana - аккорды и текст, видео

Регистрация Запомнить меня
Войти через:  Facebook Google Twitter Vk Yandex Mail.ru

Sebastian - Nana - аккорды и текст, видео

Печатать
Просмотров: 123
Nana
Sebastian
   _____________
  / Sebastian  /
 / Nana       /
/____________/


Pizzicato-intro:
 Cm               Ddim             Cm
+=---=---=---=---+=---=---=---=---+=---=---=---=---+


A-stykke:
 C                B7               C                Bm7     E9
+=---=---=---=---+=---=---=---=---+=---=---=---=---+=---=---=---=---+

 Am               D7               F       Dm       Em      G
+=---=---=---=---+=---=---=---=---+=---=---=---=---+=---=---=---=---+


 C                B7               C                Bm7     E9
+=---=---=---=---+=---=---=---=---+=---=---=---=---+=---=---=---=---+

 Am               D7               F       Dm       F       Em  G
+=---=---=---=---+=---=---=---=---+=---=---=---=---+=---=---=---=---+


B-stykke:
 F                Em      Am       Dm7     G        Em      Am  A7
+=---=---=---=---+=---=---=---=---+=---=---=---=---+=---=---=---=---+

 Dm      F        G       E7/G#    Am               D7
+=---=---=---=---+=---=---=---=---+=---=---=---=---+=---=---=---=---+

 Dm      F        G     Em         C             G  C
+=---=---=---=---+=---=---=---=---+=---=---=---=---+=---=---=---=---+




FORM:
Her slutter introen til tv-serien. Den fulde form er således:
  A-1
  B-1
  A-2
  B-2
  A-3, saxofon solo i første halvdel
  B-3, gentag skiftet mellem G og C, den skæve sidste dominant er en G(#5)




GUITAR AKKORDER:

Pizzicato-intro:
                                 (noteret uden capo)
 Cm               Ddim             Cm
|----------------|----------------|----------------|
|--------8^------|--------9^------|--------8^------|
|--------8^--8---|-------10^--10--|--------8^--8---|
|-10----10^------|-12----12^------|-10----10^------|
|----------------|----------------|----------------|
|8---------------|10--------------|8---------------|


(capo 5. bånd)
A-stykke:

 C   B7 C    Bm7 E9  Am  D7  F  Dm (F) Em G
|3--|2--|3--|2---2--|0--|0--|0--0--|0--2--2--|
|3--|2--|3--|2---2--|0--|2--|1--1--|1--3--3--|
|0--|3--|0--|2---2--|0--|0--|0--2--|0--4--2--|
|0--|2--|0--|2---1--|2--|2--|2--2--|2--4--0--|
|2--|4--|2--|4---2--|2--|0--|3--0--|3--2-----|
|3--|2--|3--|2------|0--|---|------|---------|


B-stykke:

 F   Em Am  Dm7 G   Em  Am A7   Dm F   G  E7/G# Am  D7   Dm F   G  Em  C  G   C
|0--|2--0--|0---2--|2---0--0--||0--0--|2--2----|0--|0--||0--0--|2--2--|3--2--|3--|
|1--|3--0--|1---3--|3---0--0--||1--1--|3--0----|0--|2--||1--1--|3--3--|3--3--|3--|
|0--|4--0--|0---2--|4---0--1--||2--0--|2--2----|0--|0--||2--0--|2--4--|0--2--|0--|
|2--|4--2--|2---0--|4---2--0--||2--2--|0--1----|2--|2--||2--2--|0--4--|0--0--|0--|
|3--|2--2--|0------|2---2--2--||0--3--|--------|2--|0--||0--3--|---2--|2-----|2--|
|---|---0--|-------|----0--0--||------|--------|0--|---||------|------|3-----|3--|




TEKST:

Nana, Nana
Har du hørt om Nana?
Hun har lige fået
læbestift i hele hovedet

Nana, na-na-na-Nana
Rosen fra Havanna
Dufter af parfume
Hun løfter op i skørtene, så man kan se det nye kostume

[OmkvæD:]
Nana, jeg elsker dig
Du ved, jeg står på pinde
Men jeg kan hverken gi' dig eller finde
de-de-Dø-løt-Døt-Døt-Døt-Døt-Døt-Døt
Det der gør' dig til en rigtig kvinde

Nana, Nana
Har du hørt, at Nana
klæ'r sig ud som damer
hun har set i tøj-reklamer?

Nana, na-na-na-Nana
Ingen er som Nana
Hun er noget særligt
Helt sig selv og dødsensærlig, si'r nogen ting, der er helt forfærdelige

[OmkvæD]

[saxofon solo]

Nana, åh Nana
Nu går hun banana
og er lige ved og tude
erle-perle snip-snap-snude
Jeg er dum, så jeg er ude

[OmkvæD]
*Og jeg tror, du med tiden selv vil finde



+--------------------------------------------------------------------------+
Jon Sebastian Frederiksen – 2nd /October /13
Just mail me at Maitinin@gmail.com with questions, comments and corrections!
Добавлено: 28.08.2013
Другие материалы по этой песне:
  • Аккорды и текст

Страница создана 28.08.2013
http://primanota.ru/sebastian/nana-chords.htm
Привет, Гость.
Предлагаем пройти революционный курс по гитаре.
Подарок от PrimaNota.Ru, забирай!