PrimaNota.ru - самый крупный в мире бесплатный архив песенных текстов, аккордов, табулатур и нот


Sebastian Mego - You Deserve Better - аккорды и текст, видео

Регистрация Запомнить меня
Войти через:  Facebook Google Twitter Vk Yandex Mail.ru

Sebastian Mego - You Deserve Better - аккорды и текст, видео

Печатать
Просмотров: 40
You Deserve Better
Sebastian Mego
-----------------------------------------------------------------------------
                  Sebastian Mego - You deserve better
-----------------------------------------------------------------------------
Tabbed by: brotherBvideos
E-mail: brotherBvideos@gmail.com

Tuning: Standard
Capo 1st fret

WATCH MY VIDEO: https://www.youtube.com/watch?v=9eHlQQfzy60

PLEASE RATE!

[intro]
   G        A         Bm
e|----------------------------|------------|
B|----------------------------|------------|
G|-3--5-5-3-5-5/7-7-5-7-7/8-8-|-7--7h8h7/5-|
D|----------------------------|------------|
A|----------------------------|------------|
E|----------------------------|------------|

   G        A         F#m
e|----------------------------------------|
B|----------------------------------------|
G|-3--5-5-3-5-5/7-7-5-7--3-3--------------|
D|----------------------------5-5--0-0----|
A|--------------------------------------5-|
E|----------------------------------------|

   G        A         Bm                     Em
e|----------------------------|------------|------------|----------------|
B|----------------------------|------------|------------|----------------|
G|-3--5-5-3-5-5/7-7-5-7-7/8-8-|-7--7h8h7/5-|-3--5--3----|-0h3-3--5--3----|
D|----------------------------|------------|----------0-|--------------0-|
A|----------------------------|------------|------------|----------------|
E|----------------------------|------------|------------|----------------|

[verse]
G          A            Bm
  The tears you've cried, and he doesn't even care
G        A    F#m
  So many lies, tell me why are you still there
G          A        Bm
  The games he plays, he's been playing from the start
Em
  You give, he takes, and he breaks your heart

G        A        Bm
  I think it's time that you need to face the truth 
G          A       F#m
  Than live a lie, he's not good enough for you
G       A        Bm
  Always the same, you keep giving one more chance
Em
  He'll never change, don't you understand?

[chorus]
 G           A                Bm
You deserve better than he's treating you
 G            A          F#m 
Why would anybody want to be that cruel? (I don't understand)
 G           A                Bm
You deserve someone who will treat you right
        Em
If you want, I'll be there any place, anytime

[verse]
G          A      Bm
  He thinks of him, and it's all he seems to do
G         A             F#m
  Out with his friends, there's no time to spend with you
G          A         Bm 
  It's late, you wait, and he doesn't even call
Em
  No explanation, nothing at all

[chorus]
 G           A                Bm
You deserve better than he's treating you
 G            A          F#m 
Why would anybody want to be that cruel? (I don't understand)
 G           A                Bm
You deserve someone who will treat you right
        Em
If you want, I'll be there any place, anytime

[bridge]
    G        Bm        G                 A Bm
If you only knew the things I'd give to you
          G                           Bm        
I'll be watching, waiting, hoping you see 
          G                          A
That if love is what you want, I've got what you need!

G A Bm
        He should be treating you right 
G A F#m
        Instead of making you cry
G A Bm
        I'd never make that mistake
Em
        All I'm trying to say, you deserve better

[chorus]
 G           A                Bm
You deserve better than he's treating you
 G            A          F#m 
Why would anybody want to be that cruel? (I don't understand)
 G           A                Bm
You deserve someone who will treat you right
        Em
If you want, I'll be there any place, anytime (x2)

[the end]- January 15th, 2015
Добавлено: 11.08.2015
Другие материалы по этой песне:
  • Аккорды и текст

Страница создана 11.08.2015
http://primanota.ru/sebastian-mego/you-deserve-better-chords.htm
Привет, Гость.
Предлагаем пройти революционный курс по гитаре.
Подарок от PrimaNota.Ru, забирай!