PrimaNota.ru - самый крупный в мире бесплатный архив песенных текстов, аккордов, табулатур и нот


Sebadoh - Stronger Than The Truth - таба, видео

Регистрация Запомнить меня
Войти через:  Facebook Google Twitter Vk Yandex Mail.ru

Sebadoh - Stronger Than The Truth - таба, видео

Печатать
Просмотров: 58
Title: Stronger than the Truth
Artist: Sebadoh
Album: The Sebadoh
Tabbed by: Gary Brimer(MuleVariation@aol.com)

h - hammer on
p - pull off
b - bend string up
r - release bend
/ - slide up
\ - slide down
x - muted, struck string





INTRO
(has an organ or something behind it)

when you play a chord on this part, strum across slowly. 
listen to the song and you'll know what i mean.


-9---9--4--4--5--7--5--9--|-9---9--4--4--5-4---2-----|
-10-----4-----5--------10-|-10-----4-----6---7-2-----|
-11-----6-----6--------11-|-11-----6-----7-----2-----|
-11-----6-----7--------11-|-11-----6-----7-----4-----|
--------------------------|--------------------------|
--------------------------|--------------------------|
play 2x

then...

-------0--------------|
----------------------|
-----2---2------------|
---4-------4------4---|
----------------2---2-|
-2------------2-------|
play 4x
(call this FILL 1 for later)



VERSE

----2-----------------|
----2-----------------|
----2-----------------|
------------------4---|
----------------2---2-|
-2------------2-------|

 said i don't want...

play 3x then...

----------------------|
----------------------|
----------------------|
-6--------------------|
-7--------------------|
-0--------------------|


CHORUS

D7 - X546XX
F#m - XX4222
F#m/D7 - XX4232
E - XX2100

D7            F#m
i'm not... we are...

D7             F#m     E      F#m/D7
let me...  the stars...you


(FILL 2)

   h
-2--------0-----------|
-2-3------0-----------|
-2--------1-----------|
-4--------2-----------|
----------------------|
----------------------|



SOLO
this is not complete, just the first bit to give you an idea. 
if you want to just improv(which is always more fun anyways),
you can mess around on F#m Pentatonic scale which is...

---------------------2-5-|
-----------------2-5-----|
-------------2-4---------|
---------2-4-------------|
-----2-4-----------------|
-2-5---------------------|

just mess around in this scale and you will figure something out.  


the solo starts out like...

-9-12-12-------------------------|
---------10----------------------|
------------11---9-11-11---------|
--------------------------9-9-11-|
---------------------------------|
---------------------------------|
4x w/ variations 
then lead into the next part with...

-9-12-12-12--9-12-14-14----14----14----|
------------------------12----12----12-|
---------------------------------------|
---------------------------------------|
---------------------------------------|
---------------------------------------|


WHOLE SONG ORDER

INTRO
VERSE X2
CHORUS 
FILL 2
FILL 1 X2
VERSE X2
CHORUS
FILL 2
FILL 1 (ONE TIME)
SOLO 
CHORUS
FILL 2 X2

the end is the same as the intro, but with only the organ

     
Добавлено: 05.06.2013
Другие материалы по этой песне:
  • Аккорды и текст

Страница создана 05.06.2013
http://primanota.ru/sebadoh/stronger-than-the-truth-chords.htm
Привет, Гость.
Предлагаем пройти революционный курс по гитаре.
Подарок от PrimaNota.Ru, забирай!