PrimaNota.ru - самый крупный в мире бесплатный архив песенных текстов, аккордов, табулатур и нот


Sebadoh - Not a Friend - текст песни, таба, видео

Регистрация Запомнить меня
Войти через:  Facebook Google Twitter Vk Yandex Mail.ru

Sebadoh - Not a Friend - текст песни, таба, видео

Печатать
Просмотров: 182
Уроки эстрадного вокала в Санкт-Петербурге
Авторы музыки: Lou Barlow
Авторы текста: Lou Barlow
-------------------------------------------------------------------------------
                             SEBADOH - NOT A FRIEND 
-------------------------------------------------------------------------------
Tabbed by: songsforwalter
E-mail:songsforwalter@hotmail.co.uk

What a song! Such amazing guitar and bass interplay!

This one is played on Lou's custom 8 string guitar (12 string guitar missing 2 pairs of strings) 
so some of the inversions aren't exactly right but it sounds fine.

Obv listen to record for strumming patterns...

Tuning: half a step down

Verse Riff

eb|------------9---9--9--9--|--0---0--0-0---0---0--0-0-----|
Bb|--5--4--0---x---x--x--x--|--9---9--9-9---9---9--9-9-----|
Gb|--x--x------x---x--x--x--|--9---9--9-9---9---9--9-9-----|
Db|--x--x------x---x--x--x--|--9---9--9-9---9---9--9-9-----|
Ab|--4--4------0---0--0--0--|--7---7--7-7---7---7--7-7-----|
Eb|-------------------------|------------------------------|

Riff
I'm not a good friend, I'm not a friend at all
Riff
It's never resolved, I'm nervous when you call
Riff
My words are limp, and my mind is dry

Fm(244222)       Eb(022100)Fm                       Eb
I try to be polite, but I feel like I'm stuck for life

Ab* (X02225)Db*(xx5558)  Eb
I follow my heart, it leads me far from you

Riff
No matter how close we are, I'm far, far away
Riff
I have too much now to fill my day today
Riff
I'm not a good friend, I'm not a friend at all

Fm         Eb       Fm                       Eb
I don't need obligations to our crippled conversations
Ab* (X02225)              Db*(xx5558)  Eb
I'd never tell you, it's something you should know
Ab* (X02225)      Db*(xx5558)              Eb
I'm not a friend at all, oh, please let me go

Outro chords

eb|--0---0---0-----0--0--0-----0--0--0----9--9--9-------|
Bb|--12--12--12----9--9--9-----10-10-10---10-10-10------|
Gb|--9---9---9-----9--9--9-----9--9--9----9--9--9-------|
Db|-----------------------------------------------------|
Ab|-----------------------------------------------------|
Eb|-----------------------------------------------------|

Somehow I don't trust you
I don't trust myself
And I may never forgive you
'Cuz I can't forgive myself


Don't break my spine... 

eb|--12--12--12----12-12-12----9--9--9----9--9--9-------|
Bb|--9---9---9---- 9--9--9-----10-10-10---10-10-10------|
Gb|--9---9---9-----9--9--9-----9--9--9----9--9--9-------|
Db|-----------------------------------------------------|
Ab|-----------------------------------------------------|
Eb|-----------------------------------------------------|


Outro solo, hit the distortion. listen to record for timing.. 

Alternates between a and b...

Part a
eb|--0---0---0-----0--0--0-----0--0--0----0-------|
Bb|--12--12--12----9--9--9-----5--7--9----10------|
Gb|-----------------------------------------------|
Db|-----------------------------------------------|
Ab|-----------------------------------------------|
Eb|-----------------------------------------------|

Part b
eb|--0---0---0-----0--0--0-----0-0-0-0-0-0-0------|
Bb|--12--12--12----9--9--9-----5-7-9-5-7-9-5------|
Gb|-----------------------------------------------|
Db|-----------------------------------------------|
Ab|-----------------------------------------------|
Eb|-----------------------------------------------|


Добавлено: 27.07.2015
Другие материалы по этой песне:
  • Аккорды и текст

Страница создана 30.08.2013
http://primanota.ru/sebadoh/not-a-friend-chords.htm
Привет, Гость.
Предлагаем пройти революционный курс по гитаре.
Подарок от PrimaNota.Ru, забирай!