PrimaNota.ru - самый крупный в мире бесплатный архив песенных текстов, аккордов, табулатур и нот


Sebadoh - Brand New Love - текст песни, таба, видео

Регистрация Запомнить меня
Войти через:  Facebook Google Twitter Vk Yandex Mail.ru

Sebadoh - Brand New Love - текст песни, таба, видео

Печатать
Просмотров: 110
Song: Brand New Love

Artist: Sebadoh

Album: the freed weed

transcribed by

Timothy Leonard

Intro-

e|--------------------|

b|--5-5-5-5-5-5-5-5---|

g|-2-2-2-2-2-2-2-2----|

d|--------------------|

a|--------------------|

e|--------------------|

Verse-

e|----------|----------|----------|----------|

b|--5-5-5-5-|--3-3-3-3-|--2-2-2-2-|--3-3-3-3-|

g|-2-2-2-2--|-2-2-2-2--|-2-2-2-2--|-2-2-2-2--|

d|----------|----------|----------|----------|

a|----------|----------|----------|----------|

e|----------|----------|----------|----------|

restless eyes close...

chorus-

A, D, E, D or A, D, E*, D

|x |x |x |x |x |2 |4 |2

|x |7 |9 |7 |2 |3 |5 |3

|6 |7 |9 |7 |2 |2 |4 |2

|7 |7 |9 |7 |2 |0 |0 |0

|7 |5 |7 |5 |0 |x |x |x

|5 |x |x |x |x |x |x |x

A D E D

any thought could be the beginning of the brand new tangled web your
spinning...

and so on

strum chords 8x, same rhythm as verses, slightly palm-muted.

repeat verse and chorus once, then end with a empty chorus and arpeggio.

this was my first transcription, I know its not exactly right and I may
be a little tone deaf,

so comments or corrections would be appreciated.

Also check out an awesome cover by Deadsy.

-T.L.,

letheanooze@yahoo.com

________________________________________________________________________________
     
Добавлено: 24.10.2013
Другие материалы по этой песне:
  • Аккорды и текст

Страница создана 25.04.2012
http://primanota.ru/sebadoh/brand-new-love-chords.htm
Привет, Гость.
Предлагаем пройти революционный курс по гитаре.
Подарок от PrimaNota.Ru, забирай!