PrimaNota.ru - самый крупный в мире бесплатный архив песенных текстов, аккордов, табулатур и нот


Seb - Tro Paa Os To - таба, видео

Регистрация Запомнить меня
Войти через:  Facebook Google Twitter Vk Yandex Mail.ru

Seb - Tro Paa Os To - таба, видео

Печатать
Просмотров: 115
Lavet af Mads Thomsen.

This is a danish song made by some kids for a tv show.
It might not be useful for any other than danish people.

Dette er bare hvordan jeg spiller sangen, og jeg ved ikk hvor rigtigt det er, men det lyder 

okay.


~ betyder vibrato. Det ene sted det forekommer er det dog så svagt at det kan udelades.

Intro - spilles en gang
E|---------------|---------------|
B|---------------|--------------:|
G|--3--5--7---x3-|--7--5--3------|
D|--3--5--7------|--7--5--3------|
A|--1--3--5------|--5--3--1-----:|
E|---------------|---------------|


Omkvæd 2x - kommer to gange inden vers, uden sang.

E|----------------------------------------|
B|---------------------------------------:|
G|--7-7-7-7/10-10-10-10\5-5-5-5\3-3-3-3---|
D|--7-7-7-7/10-10-10-10\5-5-5-5\3-3-3-3---|
A|--5-5-5-5/8--8--8---8\3-3-3-3\1-1-1-1--:|
E|----------------------------------------|

Vers 3x
Det er det samme som omkvædet, spillet med lidt variationer i anslag og med skiftevis 

dæmpede og løse strenge.  Lyt til sangen for at få rytmen. 

E|----------------------------------------|
B|---------------------------------------:|
G|--7-7-7-7/10-10-10-10\5-5-5-5\3-3-3-3---|
D|--7-7-7-7/10-10-10-10\5-5-5-5\3-3-3-3---|
A|--5-5-5-5/8--8--8---8\3-3-3-3\1-1-1-1--:|
E|----------------------------------------|
pm  ..  ..  ..  ..  ..  ..  ..  ..  ..  ..

Bridge til omkvæd - 3x
E|----------------------------------------|
B|---------------------------------------:|
G|-------------------7-7--5--3-3----------|
D|--5-5-5-5-5-5-5-5--7-7--5--3-3----------|
A|--5-5-5-5-5-5-5-5--5-5--3--1-1---------:|
E|--3-3-3-3-3-3-3-3-----------------------|

fjerde gang spilles dette. (På "Ih Anni det er hende jeg ka' li'")

E|----------------------------------------|
B|---------------------------------------:|
G|-------------------3--------------------|
D|--5-5-5-5-5-5-5-5--3-(lad ringe)--------|
A|--5-5-5-5-5-5-5-5--1-------------------:|
E|--3-3-3-3-3-3-3-3-----------------------|



omkvæd - 4x

E|----------------------------------------|
B|---------------------------------------:|
G|--7-7-7-7/10-10-10-10\5-5-5-5\3-3-3-3---|
D|--7-7-7-7/10-10-10-10\5-5-5-5\3-3-3-3---|
A|--5-5-5-5/8--8--8---8\3-3-3-3\1-1-1-1--:|
E|----------------------------------------|



vers - 4-x  (Spilles på samme måde som første vers).

E|----------------------------------------|
B|---------------------------------------:|
G|--7-7-7-7/10-10-10-10\5-5-5-5\3-3-3-3---|
D|--7-7-7-7/10-10-10-10\5-5-5-5\3-3-3-3---|
A|--5-5-5-5/8--8--8---8\3-3-3-3\1-1-1-1--:|
E|----------------------------------------|
pm .. .. .. .. .. .. .. .. .. .. .. .. ..


Bridge til omkvæd - 3x
E|----------------------------------------|
B|---------------------------------------:|
G|-------------------7-7--5--3-3----------|
D|--5-5-5-5-5-5-5-5--7-7--5--3-3----------|
A|--5-5-5-5-5-5-5-5--5-5--3--1-1---------:|
E|--3-3-3-3-3-3-3-3-----------------------|

fjerde gang spilles dette. (På "Ih Anni det er hende jeg ka' li'")

E|----------------------------------------|
B|---------------------------------------:|
G|-------------------3--------------------|
D|--5-5-5-5-5-5-5-5--3-(lad ringe)--------|
A|--5-5-5-5-5-5-5-5--1-------------------:|
E|--3-3-3-3-3-3-3-3-----------------------|

omkvæd - 4x

E|----------------------------------------|
B|---------------------------------------:|
G|--7-7-7-7/10-10-10-10\5-5-5-5\3-3-3-3---|
D|--7-7-7-7/10-10-10-10\5-5-5-5\3-3-3-3---|
A|--5-5-5-5/8--8--8---8\3-3-3-3\1-1-1-1--:|
E|----------------------------------------|


Intro 1x

E|---------------|---------------|
B|---------------|--------------:|
G|--3--5--7---x3-|--7--5--3------|
D|--3--5--7------|--7--5--3------|
A|--1--3--5------|--5--3--1-----:|
E|---------------|---------------|


Klappedel / C-stykke 3x  (ingen bas, men fesen klapperytme)

E|---------------------------------------|
B|--------------------------------------:|
G|---------------------------------------|
D|---------------------------------------|
A|----------------------5-3--1----------:|
E|--3~~~3~~~~3~~~~3~~~~------------------|

Sidste gang:

E|---------------------------------------|
B|--------------------------------------:|
G|---------------------------------------|
D|---------------------------------------|
A|----------------------1---------------:|
E|--3~~~3~~~~3~~~~3~~~~------------------|

omkvæd - 4x

E|----------------------------------------|
B|---------------------------------------:|
G|--7-7-7-7/10-10-10-10\5-5-5-5\3-3-3-3---|
D|--7-7-7-7/10-10-10-10\5-5-5-5\3-3-3-3---|
A|--5-5-5-5/8--8--8---8\3-3-3-3\1-1-1-1--:|
E|----------------------------------------|


Bridge til omkvæd - 3x
E|----------------------------------------|
B|---------------------------------------:|
G|-------------------7-7--5--3-3----------|
D|--5-5-5-5-5-5-5-5--7-7--5--3-3----------|
A|--5-5-5-5-5-5-5-5--5-5--3--1-1---------:|
E|--3-3-3-3-3-3-3-3-----------------------|

fjerde gang spilles dette. (På "Ih Anni det er hende jeg ka' li'")

E|----------------------------------------|
B|---------------------------------------:|
G|-------------------3--------------------|
D|--5-5-5-5-5-5-5-5--3-(lad ringe)--------|
A|--5-5-5-5-5-5-5-5--1-------------------:|
E|--3-3-3-3-3-3-3-3-----------------------|

outro

E|---------------|---------------|
B|---------------|--------------:|
G|--3--5--7---x3-|--7--5--3------|
D|--3--5--7------|--7--5--3------|
A|--1--3--5------|--5--3--1-----:|
E|---------------|---------------|




Og så selvfølgelig den meget dybe og seje tekst:

Anni tro på os to
Anni tro på dig og mig
Jeg tror på os to
Og jeg tager ikke fejl

Det er lang tid siden
Jeg har følt sådan her
Har mistet viden - du fylder mer' og mer'
Op og nedture
Jeg går sammen med dig
Og jeg vil kæmpe for, at du bliver hos mig

For jeg er så sikker på, vi har noget til fælles
At vores forhold det aldrig vil forældes
Danmark jeg har fået ny energi
Energi i Anni det er hende jeg kan li'

Anni tro på os to
Anni tro på dig og mig
Anni jeg tror på os to
Anni og jeg tager ikke fejl

Os to sammen det er noget helt specielt
Anni jeg elsker dig, jeg si'r det konsekvent
Sjove ting vi laver, gad vide hvor vi ender
Du kigger på mig, og jeg kan mærke jeg tænder

For jeg er så sikker på, vi har noget til fælles
At vores forhold det aldrig vil forældes
Danmark jeg har fået ny energi
Energi i Anni det er hende jeg kan li'

Anni tro på os to
Anni tro på dig og mig
Anni jeg tror på os to
Anni og jeg tager ikke fejl

Anni tro på os to
Anni tro på dig og mig
Jeg tror på os to
Og jeg tager ikke fejl

For jeg er så sikker på, vi har noget til fælles
At vores forhold det aldrig vil forældes
Danmark jeg har fået ny energi
Energi i Anni det er hende jeg kan li'

Anni tro på os to
Anni tro på dig og mig
Anni jeg tror på os to
Anni og jeg tager ikke fejl

For jeg er så sikker på, vi har noget til fælles
At vores forhold det aldrig vil forældes
Danmark jeg har fået ny energi
Energi i Anni det er hende jeg kan li'






Добавлено: 08.05.2012
Другие материалы по этой песне:
  • Аккорды и текст

Страница создана 08.05.2012
http://primanota.ru/seb/tro-paa-os-to-chords.htm
Привет, Гость.
Предлагаем пройти революционный курс по гитаре.
Подарок от PrimaNota.Ru, забирай!