PrimaNota.ru - самый крупный в мире бесплатный архив песенных текстов, аккордов, табулатур и нот


Seaway - Sabrina The Teenage Bitch - аккорды и текст, видео

Регистрация Запомнить меня
Войти через:  Facebook Google Twitter Vk Yandex Mail.ru

Seaway - Sabrina The Teenage Bitch - аккорды и текст, видео

Печатать
Просмотров: 182
Уроки эстрадного вокала в Санкт-Петербурге
Sabrina The Teenage Bitch
Seaway
Tabbed By: Fabio BlenderBR

 - Give your rating and help others users to find the best versions of the songs -

Intro:
e|--------------------|           e|------------------|
B|--------------------|           B|------------------|
G|-6-8-10-------------|           G|-6-8-8------------|
D|-x-x-x--------------|           D|-x-x-x------------|
A|-4-6-8--------------|    5x     A|-4-6-6------------|  1x
E|--------------------|           E|------------------|

e|--------------------|           e|------------------|
B|--------------------|           B|------------------|
G|-6-8-10-------------|           G|-6-8-8------------|
D|-x-x-x--------------|           D|-x-x-x------------|
A|-4-6-8--------------|    3x     A|-4-6-6------------|  1x
E|--------------------|           E|------------------|

Shit!


Verse:
C#                G#  
I have nothing to say, 
F                         F#m
Except I hope you burn in hell.
C#                       G#
I never wanna hear your name
F                F#m
Or see your face again
     F#m   
You disgust me,
        G#                     F       F#m
And I'm sure your better off without me.
          C#    G#   F   F#m
I let my guard down
But then I met...


Chorus:
C#      F#m    C#
Melody 
         G#               C#    F#m     C#
And she needs someone to just be
     G#
Just be there for her.


Intro:
e|--------------------|           e|------------------|
B|--------------------|           B|------------------|
G|-6-8-10-------------|           G|-6-8-8------------|
D|-x-x-x--------------|           D|-x-x-x------------|
A|-4-6-8--------------|    3x     A|-4-6-6------------|  1x
E|--------------------|           E|------------------|


Verse 2:
C#                              G#
It's been a year and now you're here
F                         F#m
And everything is back to normal.
C#                             G#
We're in my room and it's your move
F                              F#m
I'm finding home in all of your words.
        F#m                   G#                  F      
But the next day when you leave and go back to London, 
          F#m
its like nothing ever fucking happened.
          C#    G#   F   F#m
I let my guard down
Then I met...


Chorus:
C#      F#m    C#
Melody 
         G#               C#    F#m     C#
And she needs someone to just be
     G#
Just be there for her.

C#                     F#m
The first time that we met, 
C#                          G#
Hello, goodbye was all she said, 
C#                                    F#m
And I could tell by her smile and the look that she gave me 
C#                                    G#
That she wanted to stay and that she wanted to date me.

Intro:
e|--------------------|           e|------------------|
B|--------------------|           B|------------------|
G|-6-8-10-------------|           G|-6-8-8------------|
D|-x-x-x--------------|           D|-x-x-x------------|
A|-4-6-8--------------|    3x     A|-4-6-6------------|  1x
E|--------------------|           E|------------------|

e|--------------------|           e|------------------|
B|--------------------|           B|------------------|
G|-6-8-10-------------|           G|-6-8-8------------|
D|-x-x-x--------------|           D|-x-x-x------------|
A|-4-6-8--------------|    3x     A|-4-6-6------------|  1x
E|--------------------|           E|------------------|


Chorus:
C#     
Melody 
                          C#
And she needs someone to just be
     
Just be there for her.


C#                     F#m
The first time that we met, 
C#                          G#
Hello, goodbye was all she said, 
C#                                    F#m
And I could tell by her smile and the look that she gave me 
C#                                    G#
That she wanted to stay and that she wanted to date me.

C# F#m C# G#     (2x)


Intro:
e|--------------------|           e|------------------|
B|--------------------|           B|------------------|
G|-6-8-10-------------|           G|-6-8-8------------|
D|-x-x-x--------------|           D|-x-x-x------------|
A|-4-6-8--------------|    3x     A|-4-6-6------------|  1x
E|--------------------|           E|------------------|

e|--------------------|           e|------------------|
B|--------------------|           B|------------------|
G|-6-8-10-------------|           G|-6-8-8------------|
D|-x-x-x--------------|           D|-x-x-x------------|
A|-4-6-8--------------|    3x     A|-4-6-6------------|  1x
E|--------------------|           E|------------------|


[Intro Here]
Make up your mind, stop fucking with mine.
Make up your mind, stop fucking with mine.
Make up your mind, stop fucking with mine.
Make up your mind, stop fucking with mine.
Добавлено: 29.07.2015
Вам также может быть интересно:
Другие материалы по этой песне:
  • Аккорды и текст

Страница создана 29.07.2015
http://primanota.ru/seaway/sabrina-teenage-bitch-chords.htm
Привет, Гость.
Предлагаем пройти революционный курс по гитаре.
Подарок от PrimaNota.Ru, забирай!