PrimaNota.ru - самый крупный в мире бесплатный архив песенных текстов, аккордов, табулатур и нот


Seasons After - Cry Little Sister - таба, видео

Регистрация Запомнить меня
Войти через:  Facebook Google Twitter Vk Yandex Mail.ru

Seasons After - Cry Little Sister - таба, видео

Печатать
Просмотров: 184
Авторы: Mike Mainieri, Gerard McMann
Авторы музыки: Gerard McMann

-------------------------------------------------------------------------------
                             Cry Little Sister - Seasons After
-------------------------------------------------------------------------------
Tabbed by: Mike Quall
Email:michael.quall@mtmc.edu

All I have time for is the Intro right now. I know the rest so it will be up soon.

Tuning:CGCFAD

Intro (clean)

D|-----------------------------------------------------------------------------|
A|-----------------------------------------------------------------------------|
F|-----------------------------------------------------------------------------|
C ---4---4-4---5-5---4-4---5-5--------4---4-4---5-5-----4-----5----------------|
G|-----2-----2-----2-----2-----2-2------0-----0-----0-0---0-0---0-0------------|
C|-2--------------------------------0------------------------------------------|

D|-----------------------------------------------------------------------------------|
A|-----------------------------------------------------------------------------------|
F|-----------------------------------------------------------------------------------|
C|---4---4-4---5-5---4-4---5-5--------4---4-4---5-5--4-------------------------------|
G|-----2-----2-----2-----2-----2-2------0-----0------0-~~~~~-------------------------|
C|-2--------------------------------0----------------0-------------------------------|
   (distortion)
e|-------------------------------------------------------------------------------|
B|-------------------------------------------------------------------------------|
G|-------------------------------------------------------------------------------|
D|---0-2--0-2--0-2--0-2---X----------0-2--0-2--0-2--0-2---0----------------------|
A|---0-2--0-2--0-2--0-2---X--3*~~~---0-2--0-2--0-2--0-2---0----------------------|
E|---0-2--0-2--0-2--0-2---X----------0-2--0-2--0-2--0-2---0--3-3-3-3-3-3---------|
                                                         pm--------------

e|-------------------------------------------------------------------------------|
B|-------------------------------------------------------------------------------|
G|-------------------------------------------------------------------------------|
D|---0-2--0-2--0-2--0-2---X----------0-2--0-2--0-2---3-3-3-3-0~~~~~~-------------|
A|---0-2--0-2--0-2--0-2---X--3*~~~---0-2--0-2--0-2---3-3-3-3-0~~~~~~-------------|
E|---0-2--0-2--0-2--0-2---X----------0-2--0-2--0-2---3-3-3-3-0~~~~~~-------------|
                                                    pm------

************************************

| /   slide up
| \   slide down
| h   hammer-on
| p   pull-off
| ~   vibrato
| *   pinch harmonic
| x   Mute note
| b   Bend
| pb  Pre-bend
| br  Bend release
| pbr Pre-bend release
| brb Bend release bend

************************************
Добавлено: 19.06.2012
Другие материалы по этой песне:

Страница создана 10.03.2012
http://primanota.ru/seasons-after/cry-little-sister-chords.htm
Привет, Гость.
Предлагаем пройти революционный курс по гитаре.
Подарок от PrimaNota.Ru, забирай!