PrimaNota.ru - самый крупный в мире бесплатный архив песенных текстов, аккордов, табулатур и нот


Seasick Steve - Things Go Up - таба, видео

Регистрация Запомнить меня
Войти через:  Facebook Google Twitter Vk Yandex Mail.ru

Seasick Steve - Things Go Up - таба, видео

Печатать
Просмотров: 214
Things Go Up by Seasick Steve
from Dog House Music
Open G Tuning

e-----0-----------|-----0-----9~---|
B-----------------|----------------|  
G-----------------|----------------| repeat first riff throughout chorus
D-4-6---4-6-4\2---|-4-6---4-6------|
G-4-6---4-6-----6-|-4-6---4-6------|
D-----------------|----------------|

0.33
e-9~--0------------|
B------------------|
G------------------|
D-------6-4-6/9-6--|
G-------6-4-6/9-6--|
D------------------|

2.41
e---------------|
B---------------|
G---------------|
D-10-10p7-10-7--|
G-10-10p7-10-7--|
D--0---------0--|

Any corrections please comment
Thanks
Добавлено: 26.04.2012
Другие материалы по этой песне:
  • Аккорды и текст

Страница создана 26.04.2012
http://primanota.ru/seasick-steve/things-go-up-chords.htm
Привет, Гость.
Предлагаем пройти революционный курс по гитаре.
Подарок от PrimaNota.Ru, забирай!