PrimaNota.ru - самый крупный в мире бесплатный архив песенных текстов, аккордов, табулатур и нот


Search - Fenomena - таба, видео

Регистрация Запомнить меня
Войти через:  Facebook Google Twitter Vk Yandex Mail.ru

Search - Fenomena - таба, видео

Печатать
Просмотров: 63
-------------------------------------------------------------------------------
                             Fenomena - SEARCH
-------------------------------------------------------------------------------
Tabbed by:rizalwahap
E-mail:rwguitarzero@gmail.com

Tuning:Standard

(INTRO:)

e|---------------------------------------------------------------------------|
B|-------------15--13h15p13-----10p9p8p7~---7-7-8-10-------8--7----5-7-8-----|
G|-------9~------------------------------------------7~------------------5~--|
D|--/9-----------------------------------------------------------------------|
A|---------------------------------------------------------------------------|
E|---------------------------------------------------------------------------|

e|---------------------------------12-14br--12~------------------------------|
B|-----12-10~------12-10~-----15b--------------------------------------------|
G|---------------------------------------------------------------------------|
D|--/9----------/9-----------------------------------------------------------|
A|---------------------------------------------------------------------------|
E|---------------------------------------------------------------------------|


Kau genggam...


************************************

| /   slide up
| \   slide down
| h   hammer-on
| p   pull-off
| ~   vibrato
| +   harmonic
| x   Mute note
| b   Bend
| pb  Pre-bend
| br  Bend release
| pbr Pre-bend release
| brb Bend release bend

************************************
Добавлено: 23.07.2015
Вам также может быть интересно:
Другие материалы по этой песне:
  • Аккорды и текст

Страница создана 23.07.2015
http://primanota.ru/search/fenomena-chords.htm
Привет, Гость.
Предлагаем пройти революционный курс по гитаре.
Подарок от PrimaNota.Ru, забирай!